Oops, an error
Loading. Please wait.

I Aus Blauderen Verederen Dus Moet Ik Tab

201 views 1 this week
no commentswrite comment
1 2 3 4 5
2 more votes to show rating
add to favorites
launch autoscroll
font size
0
reset
how to read this tab
guitar tuner
Autoscroll
slow
fast
+/-
esc
set tempo
stop
Help us to improve Ultimate-Guitar.com Take our survey!
×
Author
Difficulty
intermediate
There is feedbacking during this track which is all a bit to random to tab out 
but here are the other main parts

Repeat parts as necessary

Part A
E|---------------------------------------------------------------------------------------------------------|
B|-12-0-12-0-12-0-12-0-12-0-12-0-12-0-12-0-10h11-0-10h11-0-10h11-0-10h11-0-10h11-0-10h11-0-10h11-0-10h11-0-|
G|---------------------------------------------------------------------------------------------------------|
D|---------------------------------------------------------------------------------------------------------|
A|---------------------------------------------------------------------------------------------------------|
E|---------------------------------------------------------------------------------------------------------|

Part B Lead
E|-12---------12----------12----------12----------11----------11----------11----------11----------|
B|----12---12----12----12----12----12----12----12----10----10----10----10----10----10----10----10-|
G|-------12---------12----------12----------12----------11----------11----------11----------11----|
D|------------------------------------------------------------------------------------------------|
A|------------------------------------------------------------------------------------------------|
E|------------------------------------------------------------------------------------------------|

Part B Rhythm (comes in towards the end)
E|---------------------------------------------------------------------------------|
B|-8-8-8-8-8-8-8-8-8-8-8-8-8-8-8-8-10-10-10-10-10-10-10-10-10-10-10-10-10-10-10-10-|
G|-9-9-9-9-9-9-9-9-9-9-9-9-9-9-9-9-8--8--8--8--8--8--8--8--8--8--8--8--8--8--8--8--|
D|-9-9-9-9-9-9-9-9-9-9-9-9-9-9-9-9-9--9--9--9--9--9--9--9--9--9--9--9--9--9--9--9--|
A|---------------------------------------------------------------------------------|
E|---------------------------------------------------------------------------------|



Bass 
(Repeat parts as necessary
G|--------------------------|  |--------------------------------------|
D|--------------------------|  |--------------------------------------|
A|---7-----------6----------|  |---7-----77777-------6-----66666------|
E|--------------------------|  |------0-----------------0-------------|

Start driving on these notes towards the end
G|--------------------------------|
D|--------------------------------|
A|---7------9------10------6*-----|
E|--------------------------------|

*last time through move up to the 12th fret instead of the 6th








Suggest correction
Give kudos to tab author, rate the tab!
1 2 3 4 5
comments
print report bad tab
guest
You may want to rate the tab now too:
select rating
Wanna post a correction for this tab? Suggest correction