Oops, an error
Loading. Please wait.

Million Dollar Question Tab

version 1
version 1

Whole song

Interactive

2,262 views 1 this week
1 commentread comment
1 2 3 4 5
excellent!
x 5
add to favorites
launch autoscroll
font size
0
reset
how to read this tab
guitar tuner
Autoscroll
slow
fast
+/-
esc
set tempo
stop
Help us to improve Ultimate-Guitar.com Take our survey!
×
Author
Difficulty
advanced
http://arcaneroots.bandcamp.com/

(/) Slide Up  (\) Slide Down  (h) Hammer On  (p) Pull Off  (b) Bend (r) Release
(v) Vibrato (t) Tap

E|-----------------------------------------------|
B|-----------------------------------------------|
G|--7-7----------7-6-7-7-6-7-7-----------7-6-7---|
D|--6-6----------6-5-6-6-5-6-6-----------6-5-6---|
A|--5-5----------5-4-5-5-4-5-5-----------5-4-5---|
E|-----0h3h4-3p0---------------0h3h4-3p0---------|  x4



E|-------------------------------------------|
B|-------------------------------------------|
G|--7---------7-7-------7---------7-7--------|
D|--6---------6-6-------6---------6-6--------|
A|--5---------5-5-------5---------5-5--------|
E|----3h4-3p0-----3h4p0---3h4-3p0-----3h4p0--| x2



E|-----------------------------------------------------------------------------|
B|--0h6h8-0h5h7----------------------------------------------------------------|
G|10------------0h507-7-0h5h7-------------6-0h507------------------------------|
D|9-------------------6-------0h5h7-------5-------0h5h7------------------------|
A|8-------------------5-------------0h507-4-------------0h5h7------------------|
E|------------------------------------------------------------0h3h5-1-0h3h5-1--| x2



E|-------------------------------------------------------------|
B|-----------------------------------------------------55555-5-|
G|-----------------------------7-----------------------66666-6-|
D|--8---8---8-8--8---8---8-----6--8---8---8-8--8---8---55555---|
A|--7---7---7-7--7---7---7-----5--7---7---7-7--7---7---44444-4-|
E|--6b7-6b7-0-0--6b7-6b7-0-000----6b7-6b7-0-0--6b7-6b7-------5-|

E|----------------------------------------------|
B|----------------------------------------------|
G|--7777-7777--7777-7777--9999--9999--4444-4444-|
D|----------------------------------------------|
A|--5555-5555--5555-5555--7777--7777--2222-2222-|
E|-------------7777-7777--9999--9999--4444-4444-|


E|-------------------------------------|
B|-------------------------------------|
G|--7777-7777--7777-7777--9999--9999-8-|
D|-------------------------------------|
A|--5555-5555--5555-5555--7777--7777-6-|
E|-------------7777-7777--9999--9999-8-|


E|----------------------------------------------|  *Palm-Muted throughout
B|----------------------------------------------|
G|--7777-7777--7777-7777--9999--9999--4444-4444-|
D|----------------------------------------------|
A|--5555-5555--5555-5555--7777--7777--2222-2222-|
E|-------------7777-7777--9999--9999--4444-4444-|


E|-------------------------------------|  *Palm Muted throughout
B|-------------------------------------|
G|--7777-7777--7777-7777--9999--9999-8-|
D|-------------------------------------|
A|--5555-5555--5555-5555--7777--7777-6-|
E|-------------7777-7777--9999--9999-8-|

E|--------------|
B|--------------|
G|--9-8---------|
D|------9-7-----|
A|----------9-7-|
E|--------------|



E|----------------------------------------------|
B|----------------------------------------------|
G|--7777-7777--7777-7777--9999--9999--4444-4444-|
D|----------------------------------------------|
A|--5555-5555--5555-5555--7777--7777--2222-2222-|
E|-------------7777-7777--9999--9999--4444-4444-|




E|-----------------------------------------------------|
B|-----------------------------------------------------|
G|--7777-7777--7777-7777--9999--9999-8--9-8------------|
D|------------------------------------------10-9-------|
A|--5555-5555--5555-5555--7777--7777-6-----------11-10-|
E|-------------7777-7777--9999--9999-8-----------------|
-
E|--------------     ---------------------------------------------|
B|--------------     ---------------------------------------------|
G|---9----------     --------------------4-4----------------------|
D|----11--------     ---2-------2------------0-0-3-5----3-5-3-3---|
A|------10------     -----4-------4------2-2---------4-4--------4-|
E|--------12----- X8 -------3p0-----3p0--4-4----------------------|





E|--------------------------------------------|
B|--------------------------1-3----1-3-1-1----|
G|------------------4-4--2-2----1-1--------1--|
D|--2-------2---------------------------------|
A|----4-------4-----2-2-----------------------|
E|------3p0-----3p0-4-4-----------------------| X3



E|----------------|
B|----------------|
G|----------------|
D|--------4-------|
A|----4h7---7-4---|
E|--6-----------5-|



E|-------------------------------------------------------------|
B|-----------------------------------------------------55555-5-|
G|-----------------------------7-----------------------66666-6-|
D|--8---8---8-8--8---8---8-----6--8---8---8-8--8---8---55555---|
A|--7---7---7-7--7---7---7-----5--7---7---7-7--7---7---44444-4-|
E|--6b7-6b7-0-0--6b7-6b7-0-000----6b7-6b7-0-0--6b7-6b7-------5-|



E|----------------------------------------------|
B|--t19p14h15p14--------------------------------|
G|---------------t18p14h16p14-------------------|
D|----------------------------t19p14h16p14------|
A|----------------------------------------------|
E|----------------------------------------  X16-|



E|-------------------------------------------------------|
B|-------------------------------------------------------|
G|--161616-161616-161616-1616/18-161616-16161616-161616--|
D|-------------------------------------------------------|
A|--141414-141414-141414-1414/16-141414-14141414-141414--|
E|-------------------------------151515-15151515-151515--| X2



E|---------------|
B|---------------|
G|---------------|
D|---------------|
A|--15-----------|
E|-----14-13-0---|  X6



E|--------     ----------|
B|---------    ----------|
G|---------    ----------|
D|---------    --------3-|
A|--5------    --3-4-5---|
E|----4-3-0 X7 ----------|



E|--------------|
B|--------------|
G|--------------|
D|--------------|
A|--5-----------|
E|----4-3-0 X16-| *leave open E to ring out a little longer*



E|-----------------------------------|
B|-----------------------------------|
G|--33333----33333-33333-----------9-|
D|--22222----22222-22222-------4--8--|
A|--11111----11111-11111------3--7---|
E|--------0-0------------0-0-2-------|



E|-------------------------------------|
B|-------------------------------------|
G|--33333----33333-33333---------------|
D|--22222----22222-22222---------------|
A|--11111----11111-11111---------------|
E|--------0-0------------0-0--22222222-|



E|----------------------    --------|
B|----------------------    --------|
G|--3b------------------    -3b-----|
D|--2b-----------2------    -2b-----|
A|--1b-------2h5---5-2--    -1b-----|
E|-----0-0-4-----------3 X3 ----0-0-|



E|-----------------------------------------------|  *Palm-Muted throughout
B|-----------------------------------------------|
G|--7777-7777--7777-7777--9999--9999--4444-4444--|
D|-----------------------------------------------|
A|--5555-5555--5555-5555--7777--7777--2222-2222--|
E|-------------7777-7777--9999--9999--4444-4444--| X2



E|-----------------------------------------------|
B|-----------------------------------------------|
G|--7777-7777--7777-7777--9999--9999--4444-4444--|
D|-----------------------------------------------|
A|--5555-5555--5555-5555--7777--7777--2222-2222--|
E|-------------7777-7777--9999--9999--4444-4444--| X8



E|---------------------------------------------------|
B|---------------------------------------------------|
G|--11-11-11-11-12-12-12-12-14-14-14-14-15-15-15-15--|
D|---------------------------------------------------|
A|--9--9--9--9--10-10-10-10-12-12-12-12-13-13-13-13--|
E|--11-11-11-11-12-12-12-12-14-14-14-14-15-15-15-15--| X8
Suggest correction
What's this?
You can suggest a correction to this tab. Community and Mods will review your correction and vote to approve or reject it.
comments
print report bad tab
1 comment total.
0 reply
craigdevlin_1 76 wrote on August 2 2012, 05:35 pm

In the third bar the legato riff should all be hammer ons, so on the A string it should also read 0h5h7, was just a typo.

guest
You may want to rate the tab now too:
select rating
Please do not post tabs as comments. Select "correction" instead!