Oops, an error
Loading. Please wait.

Resolve Bass Tab

967 views 1 this week
no commentswrite comment
1 2 3 4 5
please rate
add to favorites
launch autoscroll
font size
0
reset
guitar tuner
Autoscroll
slow
fast
+/-
esc
set tempo
stop
Help us to improve Ultimate-Guitar.com Take our survey!
×
Author
Difficulty
rainwater34 1,531
intermediate
Intro
G|-------------------------------------------------------|
D|-------------------------------------------------------|
A|-------------------------------------------------------|
E|-0-2--0-2--0-2--0-2--0-2---0-0-5--0-5--5--0-7--0-7--7--|

G|-------------------------------------------------------|
D|-------------------------------------------------------|
A|-------------------------------------------------------|
E|-0-2--0-2--0-2--0-2--0-2---0-0-5--0-5--5--0-4--0-4--4--|

Verse
G|---------------------------------------------------|
D|---------------------------------------------------|
A|---------------------------------------------------|x2
E|--2--2--2-----2--2--2-----5--5--5-----7--7--7-\-5--|


G|---------------------------------------------------------|
D|----------------------------7-------9/11-----------------|
A|---------7-9---------7-9------7-9----------9-----9-------|x2
E|--2/5-7-------2/5-7---------------------------7-----7/9--|

Pre Chorus
G|---------------------------------------------------|
D|---------------------------------------------------|
A|---------------------------------------------------|
E|--2--2--2-----2--2--2-----5--5--5-----7--7--7-\-5--|

Chorus (steady picking)
G|-----|-----|-----|-----|-----|-----|-----|-----|
D|-----|-----|-----|-----|-----|-----|-----|-----|
A|-----|-----|-----|-----|-----|-----|--4--|--2--|
E|--2--|--2--|--5--|--7--|--2--|--2--|-----|-----|

G|-----|------------------|      |-----|-----|
D|-----|------------------|      |-----|-----|
A|--0--|-0--0/7-7-7-6-6-6-|x3    |--0--|--2--|
E|-----|------------------|      |-----|-----|

repeat Intro then first half of Verse that moves into:


G|--------------------------------------|
D|--------------------------------------|
A|--------------------------------------|
E|--0-2-2---2-2-2----5-5-5---7-7-7-\-5--|

G|--------------------------------------|
D|-----4--------------------------------|
A|-4------------------------------------|
E|---2-----0-2-4----5-5-5----7-7-7-\-5--|

Then into the chorus

Break                                                                *
G|------------------------------------------------------------------------|
D|-----------------------2--4-------2--4----------------------------------|
A|--0--2------0--2-------------2----------2----0--2-------0--2-------9----|
E|--------2---------2--------------------------------2----------2-/--7----|
*slowly slide down into next section                                 *

Middle Section
G|------------------------------------------------------------------|
D|------------------------------------------------------------------|
A|---------------------------------0--------------------------------|
E|-0-2--0-2--0-2--0-2--0-2--0h2p0-----0-2--0-2--0-2--0-2--0h2p0--4--|

G|-------------------------------------------------|
D|-------------------------------------------------|
A|---------------------0--0--0--0-0--0-2-2-2-2-2-2-|
E|-0-2--0-2--0-2--0-2------------------------------|

G|-------------------------------------------------------------|
D|-------------------------------------------------------------|
A|--4\-----------------------------0--0--0--0-0--0-2-2-2-2-2-2-|
E|------2--0-/4--/4--2--0/5---2\-------------------------------|

G|-------------------------------------------------------------|
D|-------------------------------------------------------------|
A|---------------------------------0--0--0--0-0--0-2-2-2-2-2-2-|
E|--5--2--0-/4--/4--2--0--x--x--x0-----------------------------|

Alt. Chorus (steady picking)
G|-----|-----|-----|-----|           |---------------------------------|
D|-----|-----|-----|-----|           |---------------------------------|
A|-----|-----|-----|-----|    Gap    |---------------------------------| Gap
E|--2--|--2--|--0--|--5--|           |-0-0-0-0-0-0-0-0-0-7-7-7-7-7-7-7-|

G|-----|------------------|      |-----|-----|
D|-----|------------------|      |-----|-----|
A|--0--|-0--0/7-7-7-6-6-6-|x3    |--0--|--2--|
E|-----|------------------|      |-----|-----|

Outro
G|------------------------------------|-------------------------------|
D|------------------------------------|-------------------------------|
A|---------------------------------0--|----------------------------0--|
E|--0-2--0-2--0-2--0-2--0-2--0h2p0----|--0-2--0-2--0-2--0-2--0h2p0----|

G|------------------------------------------------|
D|------------------------------------------------|
A|-------------------------------------7-7-6-6-6--|
E|-0-2--0-2--0-2--0-2--5--0-2--5--0-2-------------|


And thats it, hopefully that all makes sense.
Suggest correction new What's this?
You can suggest a correction to this tab. Community and Mods will review your correction and vote to approve or reject it.
comments
We did not receive enough feedback on this tab! Please rate:
print report bad tab
1 2 3 4 5
guest
You may want to rate the tab now too:
select rating
Please do not post tabs as comments. Select "correction" instead!