Oops, an error
Loading. Please wait.

You Are Bass Tab

version 1
version 1

Whole song

Interactive

907 views 12 this week
no commentswrite comment
1 2 3 4 5
please rate
add to favorites
launch autoscroll
font size
0
reset
guitar tuner
Tab Pro tools
  • play this tab
  • loop segment
  • change instrument
  • show fretboard
  • metronome
×
Best way to learn
"You Are"
Autoscroll
slow
fast
+/-
esc
set tempo
stop
Contributor
Difficulty
intermediate
Intro
G|------------------|
D|------------------|
A|--3--3----1--3----| x8
E|------------------|

Verse
G|----------------------------------------------3-----6---|
D|----------------3h5p3-----------------------1---0-3-----|
A|----------------------6-5-3-----------------------------|
E|-1-1---3-4--4-----------------1-1---3-4--4--------------|

G|-------------------------8-----------------------------|
D|---------------6h8p6-5-6------------------1h3p1--------|
A|------------------------------------------------4-3-1--|
E|-1-1---3-4--4---------------1-1---3-4--4---------------|

G|----------------------------------------------3-----6---|
D|----------------3h5p3-----------------------1---0-3-----|
A|----------------------6-5-3-----------------------------|
E|-1-1---3-4--4-----------------1-1---3-4--4--------------|

G|--------------3-------------------------------------|
D|-------------------------------3--------------------|
A|--4-4--3--1-1---1-1--3--4--4-4---4--3--1------------|
E|------------------------------------------4--3~-----|

G|-------------------------8-----------------------------|
D|---------------6h8p6-5-6------------------1h3p1--------|
A|------------------------------------------------4-3-1--|
E|-1-1---3-4--4---------------1-1---3-4--4---------------|

G|--------------3-------------------------------------|
D|-------------------------------3--------------------|
A|--4-4--3--1-1---1-1--3--4--4-4---4--3--1------------|
E|------------------------------------------4--3~--1--|

Driving notes
G|---------|-------------|- -------|-------|
D|---------|-------------|- -------|-------|
A|-------3-|-4-------4/6-|- -------|-------|
E|-1-------|-------------|- --4----|-6-----|

Pre Second Verse
G|--------10---------------------------------|
D|--8p7--------8---6-------6p5---------------|
A|------8--------------6-------6-8\----------|
E|-----------------------8-------------------|
(not 100% but pretty close)

G|----1-0-----------------------|---1-0-------------------|
D|---------1------1-------------|--------1-----1----------|
A|------------------------------|-------------------------|
E|-1-----------4-----3---3-3-3--|-1---------4----3--4-3-0-|

G|----1-0-----------------------|---1-0-------------------|
D|---------1------1-------------|--------1-----1----------|
A|------------------------------|-------------------------|
E|-1-----------4-----3---4-3-3--|-1---------4----3--4-3-0-|

Second Verse
G|----1-0-----------------------|---1-0-------------------|
D|---------1------1-------------|--------1-----1-----1-1--|
A|------------------------------|-------------------------|
E|-1-----------4-----3---4-3-3--|-1---------4-----4-------|

G|------------------------------------------------------------|
D|-------3-------------3---3------------6---------------------|
A|-4--4----4---4--4-4----4------------8------------------8----|
E|---------------------------4/6--6--------4/6--6-6--6-----6\-|

G|----1-0-----------------------|---1-0--------------------|
D|---------1------1-------------|--------1-----------1-1---|
A|------------------------------|------------------------3-|
E|-1-----------4-----3---4-3-3--|-1---------4--5--4--------|

G|---------------------------------------------------------------|
D|-------3-------------3---3------------6------------------6-----|
A|-4--4----4---4--4-4----4------------8------------------8---8\--|
E|---------------------------4/6--6--------4/6--6-6--6-----------|

Build (no bass till second time through)
G|---------------------------------------|
D|---------------------------------------|
A|--8------3/4---------------------------|
E|--------------------4*--------6*---------|
*start driving

G|---------------|---------------|------------|--------------|
D|---------------|---------0--2--|--3------5--|--------------|
A|--5------7--8--|--1------------|------------|--3------------|
E|---------------|---------------|------------|--------------|

Guitar Solo
G|-------|-------|-------|-------|-------|-------|-------------------------|
D|-------|-------|-------|-------|-------|-------|-------------------------|
A|--5----|-------|--1----|-------|--5----|--1----|--5---5/8---8/10----3----|
E|-------|--1----|-------|--3----|-------|-------|-------------------------|

Pre-Heavy Bit
G|-----------------------------------------------------------|
D|----------3-2------------3/5~------------------------------|
A|--5--5------------1--1-------------------------------------|x2
E|---------------------------------1--1---1/5~----3--3-------|

'so lets build a house'
G|-----|-----|-----|-----|
D|-----|-----|-----|-----|
A|--5--|--1--|-----|-----|
E|-----|-----|--1--|--3--|

Outro
G|-----|-----|-----|-----|
D|-----|-----|--3--|-----|
A|--5--|--1--|-----|--3--|
E|-----|-----|-----|-----|

End note Bb
comments
We did not receive enough feedback on this tab! Please rate:
print report bad tab
1 2 3 4 5
I want to post or [tab]
guest
You may want to rate the tab now too:
select rating
Please do not post tabs as comments. Select "correction" instead!