Oops, an error
Loading. Please wait.

Behind The Smile tab

version 1
version 1

Whole song

Interactive

2,478 views 3 this week
2 commentsread comments
1 2 3 4 5
1 last vote to show rating
add to favorites
×
Save as Personal and add changes to this tab that will be seen only by you. Learn more ›
×
You can save this tab as Personal to edit and correct it or add notes. All changes will be seen only by you. Learn more »
launch autoscroll
font size
0
reset
how to read this tab
guitar tuner
edit
Autoscroll
slow
fast
+/-
esc
set tempo
stop
                    ARCH ENEMY - BEHIND THE SMILE
                     From the Album WAGES OF SIN

                        Version 2.1 - MAY '02

Transcribed by: death8699

For Questions, Comments, Newest Version, or Corrections contact
 death8699: at ArchEnemies@aol.com

Check Out Death8699.com With More Transcriptions at:
 http://www.death8699.com




.  - palm mute                  /  - slide up to
\  - slide down to              ~  - vibrato
"  - tremelo picking           ( ) - ghost note
b  - bend                       h  - hammer-on
fb - full bend (1 step)         p  - pull-off
hb - half bend (1/2 step)       r  - release a bend
t  - tapping                    ah - artificial harmonic

Tune Gtr to B

--BEHIND THE SMILE--

[Intro]
[---------]
[---------]
[*-------*]
[*-------*]
[---------]
[--2(2)br-]


[Riff A]
[-----------------------------------------------------]
[-----------------------------------------------------]
[*---------------------------------------------------*]
[*-------3------------3----------3-------------------*]
[-----------------------------------------------------]
[--1-11-----1-1-11-1----1--11-1-----1-1-11-1-2br-(2)--]

[-----------------------------------------------------]
[-----------------------------------------------------]
[*---------------------------------------------------*]
[*-----3-----------3----------3----------------------*]
[-----------------------------------------2-(2)-------]
[--11----1-1-11-1----1--11-1-----1-1-11-1-2-(2)-------]


Play Riff A 1 more time


[Riff B] (verse)
[------------------------------------------------------------]
[------------------------------------------------------------]
[*----------------------------------------------------------*]
[*----------3-------------3------------3--------------------*]
[------------------------------------------------------------]
[--1-1-1-1----11-1-1-1-1----11-1-1-1-1---11-1-1-1-1-2br-(2)--]
   . . . .    .. . . . .    .. . . . .   .. . . . .

[------------------------------------------------------------]
[------------------------------------------------------------]
[*----------------------------------------------------------*]
[*------3-------------3-------------3-----------------------*]
[------------------------------------------------2-(2)-------]
[--1-1----11-1-1-1-1----11-1-1-1-1----11-1-1-1-1-2-(2)-------]
   . .    .. . . . .    .. . . . .    .. . . . .


Play Riff B 1 more time


[Riff C] (chorus)
[-----------|----------|----------|-----------]
[-----------|----------|----------|-----------]
[*----------|----------|----------|-----------]Gtr
[*----------|----------|----------|-----------] I
[--5---(5)--|-4---(4)--|-3---(3)--|-4---(4)---]
[--6---(6)--|-6---(6)--|-5---(5)--|-6---(6)---]

[-----------|----------|----------|-----------]
[-----------|----------|----------|-----------]
[*----------|----------|----------|----------*]Gtr
[*-11--(11)-|-10--(10)-|-8---(8)--|-10--(10)-*] II
[-----------|----------|----------|-----------]
[--9---(9)--|-8---(8)--|-6---(6)--|-8---(8)---]


Play Riff C 1 more time
Play Riff B 2 times
Play Riff C 2 times


[Riff D] (bridge)
[------------------------|----------------------------]
[------------------------|----------------------------]
[*-----------------------|---------------------------*]
[*-----------------------|----------------------6----*]
[--2---22--2-3---3-6---6-|-2---22---2-3---3---6---6---]
[--0---00--0-1---1-4---4-|-0---00---0-1---1-4---------]
                                            [let ring ]


Play Riff D 1 more time


[Riff E] (over melody)
[-----------------------------------------------------------]
[-----------------------------------------------------------]
[*---------------------------------------------------------*]Gtr 
[*-7----------------------------------------------11-------*] I
[-----------------------------------------------------------]
[--5----------------------------------------------9---------]

[--------x-19-19-18-18-16-16--------------------------------]
[------x---------------------19-19-18-18-16-16-14-14fb~-----]
[*---x-----------------------------------------------------*]Gtr 
[*-x-------------------------------------------------------*] II
[-----------------------------------------------------------]
[-----------------------------------------------------------]

[-----------------------------------------------------------]
[-----------------------------------------------------------]
[*---------------------------------------------------------*]Gtr 
[*-4-----------------------------------------------9-------*] I
[-----------------------------------------------------------]
[--2-----------------------------------------------7--------]

[--------x-18-18-16-16--------------------------------------]
[------x---------------19-19-18-18-16-16--------------------]
[*---x-----------------------------------17-17-16-16fb~----*]Gtr 
[*-x-------------------------------------------------------*] II
[-----------------------------------------------------------]
[-----------------------------------------------------------]

[-----------------------------------------------------------]
[-----------------------------------------------------------]
[*---------------------------------------------------------*]Gtr
[*-2-----------------------------------------------8-------*] I
[--2--------------------------------------------------------]
[--0-----------------------------------------------6--------]

[--------x-16-16--------------------------------------------]
[------x---------19-19-18-18-16-16--------------------------]
[*---x-----------------------------17-17-16-16-15-15fb~----*]Gtr 
[*-x-------------------------------------------------------*] II
[-----------------------------------------------------------]
[-----------------------------------------------------------]

[----------------------]
[----------------------]
[*--------------------*]Gtr
[*-2----3----4----6---*] I
[--2----3----4----6----]
[--0----1----2----4----]


Play Riff E 1 more time (rhythm over solo)
Play Riff C 2 times 


[Riff C.1] (outro chorus)
[---------|--------|--------|---------]
[---------|--------|--------|---------]
[*--------|--------|--------|--------*]Gtr
[*--------|--------|--------|--------*] I
[--5---5--|-4---4--|-3---3--|-4---4---]
[--6---6--|-6---6--|-5---5--|-6---6---]

[---------|--------|--------|---------]
[---------|--------|--------|---------]
[*--------|--------|--------|--------*]Gtr
[*-11--11-|-10--10-|-8---8--|-10--10-*] II
[---------|--------|--------|---------]
[--9---9--|-8---8--|-6---6--|-8---8---]


Play Riff C.1 .5 time


[Ending]                       (fade out)
[---------|--------|--------|-----------]
[---------|--------|--------|-----------]
[*--------|--------|--------|----------*]Gtr
[*--------|--------|--------|----------*] I
[--5---5--|-4---4--|-3---3--|-4---(4)---]
[--6---6--|-6---6--|-5---5--|-6---(6)---]

                               (fade out)
[---------|--------|--------|-----------]
[---------|--------|--------|-----------]
[*--------|--------|--------|----------*]Gtr
[*-11--11-|-10--10-|-8---8--|-10--(10)-*] II
[---------|--------|--------|-----------]
[--9---9--|-8---8--|-6---6--|-8---(8)---]

Check Out Death8699.com With More Transcriptions at:
 http://www.death8699.co

            
            
Suggest correction
Creating personal tab
Creating personal tab
You can edit any tab online and save it as your Personal.

You can edit, replace or remove any tab part or add personal notes – all changes will be seen only by you.

Personal tabs can be accessed anytime from any device, even offline.
Learn more »
Give kudos to tab author, rate the tab!
1 2 3 4 5
comments
print report bad tab
2 comments total.
0 reply
Kortez3000 40 May 31, 2008 06:54 PM

That's a nice tab!

0 reply
53206430 10 Jan 29, 2009 07:57 AM

I think, it's not:
[--------x-18-18-16-16--------------------------------------]
[------x---------------19-19-18-18-16-16--------------------]
[*---x-----------------------------------17-17-16-16fb~----*]Gtr
[*-x-------------------------------------------------------*] II
[-----------------------------------------------------------]
[-----------------------------------------------------------]

[--------x-16-16--------------------------------------------]
[------x---------19-19-18-18-16-16--------------------------]
[*---x-----------------------------17-17-16-16-15-15fb~----*]Gtr
[*-x-------------------------------------------------------*] II
[-----------------------------------------------------------]
[-----------------------------------------------------------]

I think, it looks:

[--------x-18-18-16-16--------------------------------------]
[------x---------------19-19-18-18-16-16--------------------]
[*---x-----------------------------------18-18-16-16fb~----*]Gtr
[*-x-------------------------------------------------------*] II
[-----------------------------------------------------------]
[-----------------------------------------------------------]

[--------x-16-16--------------------------------------------]
[------x---------19-19-18-18-16-16--------------------------]
[*---x-----------------------------18-18-16-16-15-15fb~----*]Gtr
[*-x-------------------------------------------------------*] II
[-----------------------------------------------------------]
[-----------------------------------------------------------]

4 stars

guest
Wanna post a correction for this tab? Suggest correction