Oops, an error
Loading. Please wait.

Fields Of Desolation Tab

version 2
version 2

Whole song

Interactive

688 views 1 this week
no commentswrite comment
1 2 3 4 5
3 more votes to show rating
add to favorites
launch autoscroll
font size
0
reset
how to read this tab
guitar tuner
Autoscroll
slow
fast
+/-
esc
set tempo
stop
Help us to improve Ultimate-Guitar.com Take our survey!
×
Author
Difficulty
Tuning
advanced
B E A D F# B
/---------------------------------------------------------------------------/
/    The following is the author's own interpretation of the song, to be    /
/                     used for private use and studying                     /
/---------------------------------------------------------------------------/

                 ARCH ENEMY - FIELDS OF DESOLATION
                     From the Album BLACK EARTH
             Copyright 1996 W.A.R. (WRONG AGAIN RECORDS)

                    Version 666 - JANUARY 2005

Transcribed by: Death8699
                Scott King

For Questions, Comments, Newest Version, or Corrections contact
 Death8699: at MethylinInfo@aol.com

Check Out Death Warp, With More Transcriptions On It:
 http://www.deathwarp.com/

..  - palm mute          /  - slide up to
 \  - slide down to      ~  - vibrato
 h  - hammer on          b  - bend
 p  - pull off            Suffixes for bend
                          ph - pinch harmonic
                           f - full bend    h - half bend
*  - see comment           r - release      t - tap bend
X  - percussion mute       ~ - vibrato bend
@  - slight palm mute     () - ghost note, sustained note

Tune Gtr to B

--FIELDS OF DESOLATION--

 |Riff A|
||--------------------------------------------------------------------|
||--------------------------------------------------------------------|
||:-------------------------------------------------------------------| 
||:-------------------------------------------------------------------|
||-----2--------2-------------9--------9-------------2--------2-------|
||-0---0-0-0-0--0-0-0-0---7---7-7-7-7--7-7-7-7---0---0-0-0-0--0-0-0-0-|
|| ^     . . .    . . .   ^     . . .    . . .   ^     . . .    . . . |
||--------------------------------------------------------------------|
||--------------------------------------------------------------------|
||--------------------------------------------------------------------| 
||--------------------------------------------------------------------|
||-----9--------9-------------2--------2-------------10--------10-----|
||-7---7-7-7-7--7-7-7-7---0---0-0-0-0--0-0-0-0---8---8--8-8-8--8----7-|
   ^     . . .    . . .   ^     . . .    . . .   ^      . . .       ^

 |--------------------------------------------------------------------||
 |--------------------------------------------------------------------||
 |-------------------------------------------------------------------:||
 |-------------------------------------------------------------------:||
 |-9--------9-------------9-------------------------------------------||
 |-7-7-7-7--7-7-7-7---7---7-7-7-7---7---5---3~---(3)------------------||
     . . .    . . .   ^     . . .


Repeat Riff A a total of 2 times.


 |Riff B|
||---------------------------------------------------0-----------0------||
||-----------------------------------------------------0-----------0----||
||:------------------------------------------------------3-----------3-:||
||:--------------------------------------------------------------------:||
||------4-------5--------------4-------5---------2-----------2----------||
||-2~-----2-2-2---2-2-2---2~-----2-2-2---2-2-2---0-----------0----------||
   ^      . . .   . . .   ^      . . .   . . .   ^           ^


Repeat Riff B a total of 2 times.
Repeat Riff A a total of 2 times.
Repeat Riff B a total of 2 times.


 |Riff C|
||---------------------------------------------------------------|
||---------------------------------------------------------------|
||:----9--11--12------12--11--9------11--12--14------14--12--13--| 
||:-9-------------10-------------12--------------13--------------|
||---------------------------------------------------------------|
||---------------------------------------------------------------|
||                                                               |
||---------------------------------------------------------------|
||---------------------------------------------------------------|
||:-9----------------------------12------------------------------|
||:-9-------------10-------------12---------------9--------------|
||--7-------------10-------------10---------------9--------------|
||----------------8-------------------------------7--------------|

 |---------------------------------------------------------------||
 |---------------------------------------------------------------||
 |----9--11--12------12--11--9--8~--9-8-------------------------:||
 |-9-------------10---------------------10--9~-(9)--------------:||
 |---------------------------------------------------------------||
 |---------------------------------------------------------------||
 |                                                               ||
 |---------------------------------------------------------------||
 |---------------------------------------------------------------||
 |-9------------------------------------------------------------:||
 |-9-------------10-------------9-----------9-------------------:||
 |-7-------------10-------------9-----------9--------------------||
 |---------------8--------------7-----------7--------------------||


Repeat Riff C a total of 2 times.


|Riff D|
||-----------------------------------------------------------------------|
||-----------------------------------------------------------------------|
||:----------5-----6-----------------------6-----7---8-------------6-----|
||:-7---8----5-----6-----7-----------------6-----------------------6-----|
||-----------3--7--4---------8----7-----7--4--------------7-----7--4-----|
||--------------5-----------------5---5-5-----------------5---5-5--------|
||                                    .                       .          |
||-----------------------------------------------------------------------|
||-----------------------------------------------------------------------|
||:-7--------5-----6-----7-----------------6-----7-----------------6-----|
||:-7---8----5-----6-----7-----------------6-----7----8------------6-----|
||--5---5----3--7--4-----5---8----7-----7--4-----5----5---7-----7--4-----|
||--------------5------------6----5---5-5-----------------5---5-5--------|
                                      .                       .
.|-----------------------------------------------------------------------||
 |-----------------------------------------------------------------------||
 |-------------------p.h.-----------------------------------------------:||
 |--7-----------------4~------------------------------------------------:||
 |------8----7-----7-----------------------------------------------------||
 |-----------5---5-5-----------------------------------------------------||
 |               .                                                       ||
 |-----------------------------------------------------------------------||
 |-----------------------------------------------------------------------||
 |--7-----------------6-------------------------------------------------:||
 |--7-----------------6-------------------------------------------------:||
 |--5---8----7-----7--4--------------------------------------------------||
 |------6----5---5-5-----------------------------------------------------||
                 .


Play Riff D a total of 1 time only.


Play Riff A a total of 2 times.
Play Riff B a total of 2 times.
Play Riff C a total of 2 times.
Play Riff D a total of 1 time.
Play Riff A a total of 2 times.
Play Riff B a total of 2 times.
Play Riff C a total of 2 times.
Play Riff D a total of 1 time.


 |Riff E| (Outro till fade)
||-------------------------------------------------------------||
||-------------------------------------------------------------||
||:------------------------------------------------------------||
||:------------------------------------------------------------||
||-7-777-777-777---------------5-555-555-555-------------------||
||---------------5-555-555-555---------------3-333-333-333-----||
|| . ... ... ... . ... ... ... . ... ... ... . ... ... ...     ||
||                                                             ||
||-------------------------------------------------------------||
||-------------------------------------------------------------||
||------------------------------------------------------------:||
||------------------------------------------------------------:||
||-3-333-333-333---------------2-222-222-222-------------------||
||---------------2-222-222-222---------------5-555-3-333-2-222-||
   . ... ... ... . ... ... ... . ... ... ... . ... . ... . ...

Check Out Death Warp, With More Transcriptions On It:
 http://www.deathwarp.com/
Suggest correction
Give kudos to tab author, rate the tab!
1 2 3 4 5
comments
print report bad tab
guest
You may want to rate the tab now too:
select rating
Wanna post a correction for this tab? Suggest correction