Oops, an error
Loading. Please wait.

Marching On A Dead End Road tab

version 4
version 4

Whole song

Interactive

1,214 views 1 this week
2 commentsread comments
1 2 3 4 5
2 more votes to show rating
add to favorites
×
Save as Personal and add changes to this tab that will be seen only by you. Learn more ›
×
You can save this tab as Personal to edit and correct it or add notes. All changes will be seen only by you. Learn more »
launch autoscroll
font size
0
reset
how to read this tab
guitar tuner
edit
Autoscroll
slow
fast
+/-
esc
set tempo
stop
Difficulty
intermediate
-----------------------------------------------------------------------------------------
                        Marching On A Dead End Road by Arch Enemy
-----------------------------------------------------------------------------------------
Album: Anthems of Rebellion
Tabbed By: Adrian Pearson
Date: May 2nd 2007
Email: flip_master8@hotmail.com
Tuning: Standard (E-A-D-G-B-e)

This song is pretty short and pretty easy to play.  nice song to jam to.  i used the
c1 - c3, and o1 - o4 system as blankleftempty@hotmail.com did in his tab. i also did a
amount of copying and pasting, so i'm giving credit where credit is due. The brackets 
the c's and o's are in indicate how long they are played with the number of times played
in the bracket.  Look at the references to see what they are. i did this rather than 
it all out. As with any song, listen to it as you learn in. Peace

\ = slide down to
/ = slide up to
h = hammer on
p = pull off

Guitar I
      (c1)        (c2)       (c3)
e|----------0-|---------0-|---------0-|
B|----6-------|----6------|----8------|
G|-7-----7----|-7-----7---|-6-----6---|
D|-0----------|-8---------|-----------|
A|------------|-----------|-----------|
E|------------|-----------|-----------|

Intro
e|----------0-----------0-----------0-----------0--|
B|----6-----------6-----------6-----------6--------|
G|-7-----7-----7-----7-----7-----7-----7-----7-----|
D|-0-----------0-----------0-----------0-----------|
A|-------------------------------------------------|
E|-------------------------------------------------|
 |                                                 |
e|----------------------------12-------------------|
B|-------------------------------------------------|
G|----------------------7--------------------------|
D|----------------7--------------------------------|
A|-------------------------------------------------|
E|-------------------------------------------------|

Guitar II
 (c1 x4                                        )(c2 x6                )(c3x2)

e|-----13-12-13---12-13-12---12-10h12p10-8-----------------------------|-----|
B|-(12)------------------------------------10—13b--------10-8-------8-6|-----|
G|-(12)-----------------------------------------------10----------9----|-12--|
D|-(12)--------------------------------------------12----------10------|-----|
A|---------------------------------------------------------------------|-----|
E|---------------------------------------------------------------------|-----|

 (c1 x4                                                                )

e|---10-8-------8------------------------------------------------------|
B|--x-----11-10---11-10-8-11-10-8----10-8-6---8-6-----6----------------|
G|-x------------------------------10--------9-----9-7---9-7----7-------|
D|----------------------------------------------------------10---------|
A|---------------------------------------------------------------------|
E|---------------------------------------------------------------------|

 (c1 x4                                                                     )

e|---13-12-10----12-10-------10------------------------------------------------|
B|--x---------13-------13-11----13-11-10-13-11-10----11-10-------10------------|
G|-x----------------------------------------------12-------12-10----12-10-9-10-|
D|-----------------------------------------------------------------------------|
A|-----------------------------------------------------------------------------|
E|-----------------------------------------------------------------------------|

Guitar II (the end of this bar and the start of the next section are mixed)

 (c1  x8                                           )

e|-6-8-8s10--10p8h10---8-10-10s12-9--10--12-10-12-12----13-13^--|
B|-6-------------------8----------8-----------------------------|
G|-7-------------------9----------9----------------------7------|
D|----------------------------------------------------7-----7---|
A|----------------------------------(comes in here)5------------|
E|--------------------------------------------------------------|

Guitar I
     (o1)         (o2)          (03)        (04)
e|------------|------------|------------|------------|
B|------------|------------|------------|------------|
G|-------7----|-5----------|-------3----|-------6----|
D|----7-----7-|----5-----5-|----3-----3-|----5-----5-|
A|-5----------|-------3----|-1----------|-4----------|
E|------------|------------|------------|------------|


(o1 x7                                                        )(o2 x1     )

e|---3-1---0h1--------------------------1/3-1---0h1-----0h1---------------|
B|-------3-----3-1---3--0--1-0h1p0------------3-----3-------3---1---------|
G|-2-------------------------------0--2---------------2-------2--0---0----|
D|-----------------------------------------------------------------2------|
A|------------------------------------------------------------------------|
E|------------------------------------------------------------------------|

(o3 x6                                                 )(o4 x2            )

e|---3-1---0h1--------------------------1/3-1---0h1--------3--------------|
B|-------3-----3-1---3--0--1-0h1p0------------3-----3-3--2---2-------2----|
G|---------------------------------0-2-------------------2-----2---2---2--|
D|-------------------------------------------------------0-------0--------|
A|-1----------------------------------------------------------------------|
E|------------------------------------------------------------------------|

(o1 x7                                                        )(o2 x1     )

e|---3-1---0h1--------------------------1/3-1---0h1-----0h1---------------|
B|-------3-----3-1---3--0--1-0h1p0------------3-----3-------3---1---------|
G|-0-------------------------------0--2---------------2-------2--0---0----|
D|-----------------------------------------------------------------2------|
A|------------------------------------------------------------------------|
E|------------------------------------------------------------------------|

(o3 x6                                                 )(o4 x2            )

e|---3-1---0h1--------------------------1/3-1---0h1--------3--------------|-1-|
B|-------3-----3-1---3--0--1-0h1p0------------3-----3-3--2---2-------2----|-3-|
G|---------------------------------0-2-------------------2-----2---2---2--|-2-|
D|-------------------------------------------------------0-------0--------|-0-|
A|-1----------------------------------------------------------------------|---|
E|------------------------------------------------------------------------|---|
Suggest correction
Creating personal tab
Creating personal tab
You can edit any tab online and save it as your Personal.

You can edit, replace or remove any tab part or add personal notes – all changes will be seen only by you.

Personal tabs can be accessed anytime from any device, even offline.
Learn more »
Give kudos to tab author, rate the tab!
1 2 3 4 5
comments
print report bad tab
2 comments total.
0 reply
Olap 10 Nov 16, 2007 12:22 PM

I find this easier for the run, no position
change:
e|---10-8-------8----------------------------------------------------------|
B|--x-----11-10---11-10-8-11-10-8
----10-8-----8----------------------------|
G|-x------------------------------10------10-9--10--9-7-10--9-7----7-------
|
D|--------------------------------------------------------------10---------|
A|-------------------------------------
------------------------------------|
E|-------------------------------------------------------------------------|

0 reply
gypsyiscool 130 May 25, 2009 05:09 PM

i dont find that easy at all Olap

guest
Wanna post a correction for this tab? Suggest correction