Oops, an error
Loading. Please wait.

Mechanic God Creation Tab

version 1
version 1

Whole song

Interactive

3,215 views 1 this week
1 commentread comment
1 2 3 4 5
x 3
add to favorites
launch autoscroll
font size
0
reset
how to read this tab
guitar tuner
Autoscroll
slow
fast
+/-
esc
set tempo
stop
Help us to improve Ultimate-Guitar.com Take our survey!
×
Author
Difficulty
Tuning
intermediate
C F A# D# G C
             ----------------------------------
             Arch Enemy - Mechanic God Creation
             -----------------------------------

Tabbed by: DiMeTiMe


Alright,this is my 2nd tab, so be nice! :)
I Couldn't figure out the very beginning, but it sounds like they're using a sitar 
This is what I could figure out. I'm pretty sure on what I've tabbed though ;)


Tuning: C F Bb Eb G C (C standard)

PM = palm mute
h = hammer on
p = pull off
b = bend
r = release
< > = natural harmonic
ph = pinch harmonic

(gtr.2)

0:24         0:35

|-----------| |-----------|
|-----------| |-----------|
|-----------| |-----------|
|-----------| |-----------|
|-2-2--2----| |-2-2--2----|
|-0-0--0----| |-0-0--0----|
  PM.           PM.

0:44 - 1:15  (play 3 times)          (play harmonic 8X)

|------------------------------------------------------|
|------------------------------------------------------|
|------------------------------------------------------|
|------------------------------------------------------|
|-2-2------7-8-----7-8-----10-----7-8------------------|
|-0-0--0-0-----0-0-----0-0----0-0------<2.5>-----------|
  PM.  . .     . .     . .    . .
                   
|-------------------------------------------------------|
|-------------------------------------------------------|
|-------------------------------------------------------|
|-------------------------------------------------------|
|-----7-8-----7-8-----10\------7-8----------------------|
|-0-0-----0-0-----0-0-----0-0------0-0-0-1-3-1----------|
  PM.     . .     . .     . .

1:16 - 1:26

  (use staccato here)             (play this part twice)
|----------------------------|---------------------------------------------|
|----------------------------|---------------------------------------------|
|-10-10--10-10--10-10--10-10-|---------------------------------------------|
|--8--8---8--8---8--8---8--8-|---------------------------------------------|
|----------------------------|-----6-5---------6-5---------6-5---------6-5-|
|----------------------------|-0-0-4-3--0-0--0-4-3--0-0--0-4-3--0-0--0-4-3-|
                               PM.      . .  .      . .  .      . .  .

1:27 - 1:38

   (play twice)
|-----------------------------------------------------------------------|
|-----------------------------------------------------------------------|
|-----------------------------------------------------------------------|
|-----------------------------------------------------------------------|
|-7-11-7-10-7--7-11-7-10-7-9-6-8-5--7-11-7-10-7--7-11-7-10-7-12-9-13-10-|
|-----------------------------------------------------------------------|
 PM. . . . .   . . . . . . . . . .  . . . . . .  . . . . . . . . . . . 

1:39 - 1:56

 (Play 4 times, I don't know the lead for this) 
|------------------------------------------------|
|------------------------------------------------|
|-13--13/14--14--14/16--16--15--15/16--16--16/18-|
|------------------------------------------------|
|-11--11/12--12--12/14--14--13--13/14--14--14/16-|
|------------------------------------------------|

1:57 - 2:15

(play 3 times)          (play harmonic 8X)

|------------------------------------------------------|
|------------------------------------------------------|
|------------------------------------------------------|
|------------------------------------------------------|
|----------7-8-----7-8-----10-----7-8------------------|
|------0-0-----0-0-----0-0----0-0------<2.5>-----------|
   PM  . .     . .     . .    . .

|-------------------------------------------------------|
|-------------------------------------------------------|
|-------------------------------------------------------|
|-------------------------------------------------------|
|-----7-8-----7-8-----10------7-8-----------------------|
|-0-0-----0-0-----0-0-----0-0------0-0-0-1-3-1----------|
  PM.     . .     . .     . .

2:16 - 2:27

 (use staccato here)             (play this part twice)
|----------------------------|---------------------------------------------|
|----------------------------|---------------------------------------------|
|-10-10--10-10--10-10--10-10-|---------------------------------------------|
|--8--8---8--8---8--8---8--8-|---------------------------------------------|
|----------------------------|-----6-5---------6-5---------6-5---------6-5-|
|----------------------------|-0-0-4-3--0-0--0-4-3--0-0--0-4-3--0-0--0-4-3-|
                               PM.      . .  .      . .  .      . .  .

2:28 - 2:37

  
|--------------------------------------------------------------------|
|--------------------------------------------------------------------|
|--------------------------------------------------------------------|
|--------------------------------------------------------------------|
|-7-11-7-10-7--7-11-7-10-7-9-6-8-5--7-11-7-10-7--7-11-7-10-7-9-6-8-5-|
|--------------------------------------------------------------------|
 PM. . . . . . . . . . . . . . . .  . . . . . . . . . . . . . . . . .

|--------------------------------------------------------------------|
|--------------------------------------------------------------------|
|--------------------------------------------------------------------|
|--------------------------------------------------------------------|
|-7h11p7h10p7--7h11p7h10p7h9p6h8p5--7h11p7h10p7--7h11p7h10p7h9p6h8p5-|
|--------------------------------------------------------------------|

2:38 - 2:55

  (I don't know the lead for this part)
|------------------------------------------------|
|------------------------------------------------|
|-13--13/14--14--14/16--16--15--15/16--16--16/18-|
|------------------------------------------------|
|-11--11/12--12--12/14--14--13--13/14--14--14/16-|
|------------------------------------------------|

2:56 - 3:08

 (Re-intro)

3:09

 (gtr.2)
|----------|
|----------|
|----------|
|----------|
|-2-2--2---|
|-0-0--0---|

3:20 - 3:37

   (play slowly,twice)
|---------------------------------------------------------------------|
|---------------------------------------------------------14----------|
|-16-15----15-16-16--16-15--------------16-15----15-16-16----16-15-15-|
|-------17-----------------17-16-14-14--------17----------------------|
|---------------------------------------------------------------------|
|---------------------------------------------------------------------|

3:38 -

 solo rhythm (with a wah pedal)

|--------------------------------------------------------------|
|--------------------------------------------------------------|
|--------------------------------------------------------------|
|--------------------------------------------------------------|
|---7-----7---7---7-----7---7---7-----7----3--7-6---6----------|
|-0---0-0---0---0---0-0---0---0---0-0---0---------7---7-5-7----|          
 PM   . .   .   .   . .   .   .   . .   .


3:58 - 4:18
                  [SOLO]

Whammy bar and melodic stuff (I'll tab it out one day :) )


4:19 - 4:58

   (Play 4 times, I don't know the lead for this)
|------------------------------------------------|
|------------------------------------------------|
|-13--13/14--14--14/16--16--15--15/16--16--16/18-|
|------------------------------------------------|
|-11--11/12--12--12/14--14--13--13/14--14--14/16-|
|------------------------------------------------|

 4:59 - end

Solo rhythm (faster) (with a wah pedal)

|--------------------------------------------------------------|
|--------------------------------------------------------------|
|--------------------------------------------------------------|
|--------------------------------------------------------------|
|---7-----7---7---7-----7---7---7-----7----3--7-6---6----------|
|-0---0-0---0---0---0-0---0---0---0-0---0---------7---7-5-7----|          
 PM   . .   .   .   . .   .   .   . .   .


OKay, I'm done!

Hope you liked my tab!
Suggest correction
Give kudos to tab author, rate the tab!
1 2 3 4 5
comments
print report bad tab
1 comment total.
0 reply
duran000 10 Oct 16, 2008 11:42 PM

The tab itself wasn't great, but it's very good for a second tab.

guest
You may want to rate the tab now too:
select rating
Wanna post a correction for this tab? Suggest correction