Oops, an error
Loading. Please wait.
We have an official Nemesis tab made by UG professional guitarists. Check out the tab »
×

Nemesis bass

version 2
version 2

Whole song

  • Based on the bass master track: https://youtu.be/2sIyHF4GvZQ.
3,280 views 3 this week
3 commentsread comments
1 2 3 4 5
2 more votes to show rating
add to favorites
×
Save as Personal and add changes to this tab that will be seen only by you. Learn more ›
×
You can save this tab as Personal to edit and correct it or add notes. All changes will be seen only by you. Learn more »
launch autoscroll
font size
0
reset
guitar tuner
backing track
0:00
0:00
edit
Autoscroll
slow
fast
+/-
esc
set tempo
stop
im pretty sure this isnt how sharlee plays it but its how i play it and i think it sounds cool

intro

|---------------------|
|---------------------|
|-1-2--4-2---1-2--4-2-|
|---------------------|
|---------------------|

|-----------------------|
|-----------------------|
|-111111112111114121111- i dont know exactly how many of these a#'s there
|--------------------------| are but basically you just play the same tune but
|--------------------------| with a whole lot more notes in between

verse

|---------------------------------|
|---------------------------------|
|---------------------------------|
|-------------------------1---1-3-|
|-1-1-2-1-2-1-1-4-1-2-1-1---1-----|

|-------------------------|
|-------------------------|
|-------------------------|
|-------------------2-4-5-|
|-1-1-2-1-2-1-1-1-2-------|

|---------------------------------|
|---------------------------------|
|---------------------------------|
|-------------------------1---1-3-|
|-1-1-2-1-2-1-1-4-1-2-1-1---1-----|

|---------------------------------|
|---------------------------------|
|---------------------------------|
|-------------------2-4-5---4-6-7-|
|-1-1-2-1-2-1-1-1-2-------5-------|  play this through twice

guitar break

|-----------------------|
|-----------------------|
|-111111112111114121111-
|-----------------------|
|-----------------------|

back to the verse riff

|---------------------------------|
|---------------------------------|
|---------------------------------|
|-------------------------1---1-3-|
|-1-1-2-1-2-1-1-4-1-2-1-1---1-----|

|-------------------------|
|-------------------------|
|-------------------------|
|-------------------2-4-5-|
|-1-1-2-1-2-1-1-1-2-------|

|---------------------------------|
|---------------------------------|
|---------------------------------|
|-------------------------1---1-3-|
|-1-1-2-1-2-1-1-4-1-2-1-1---1-----|

|---------------------------------|
|---------------------------------|
|---------------------------------|
|-------------------2-4-5---4-6-7-|
|-1-1-2-1-2-1-1-1-2-------5-------|  play this through twice

chorus

|-----------------------------------------------------------------|
|-----------------------------------------------------------------|
|-----------------------------------------------------------------|
|-4-4-4-4-4-4-4-4-4-4-4-4-4-4-4-4-6-6-6-6-6-6-6-6-6-6-6-6-6-6-6-6-|
|-----------------------------------------------------------------|

|-----------------------------------------------------------------|
|-----------------------------------------------------------------|
|-----------------------------------------------------------------|
|-3-3-3-3-3-3-3-3-3-3-3-3-3-3-3-3-4-4-4-4-4-4-4-4-4-4-4-4-3-3-3-3-|
|-----------------------------------------------------------------|

|-----------------------------------------------------------------|
|-----------------------------------------------------------------|
|-----------------------------------------------------------------|
|-1-1-1-1-1-1-1-1-1-1-1-1-1-1-1-1-3-3-3-3-3-3-3-3-3-3-3-3-3-3-3-3-|
|-----------------------------------------------------------------|

|-----------------------------------------------------------------|
|-----------------------------------------------------------------|
|-----------------------------------------------------------------|
|-4-4-4-4-4-4-4-4-4-4-4-4-4-4-4-4-6-6-6-6-6-6-6-6-8-8-8-8-8-8-8-8-|
|-----------------------------------------------------------------|

guitar break

|---------------------|
|---------------------|
|-1-2--4-2---1-2--4-2-|
|---------------------|
|---------------------|

|-----------------------|
|-----------------------|
|-111111112111114121111-
|-----------------------|
|-----------------------|

verse

|---------------------------------|
|---------------------------------|
|---------------------------------|
|-------------------------1---1-3-|
|-1-1-2-1-2-1-1-4-1-2-1-1---1-----|

|-------------------------|
|-------------------------|
|-------------------------|
|-------------------2-4-5-|
|-1-1-2-1-2-1-1-1-2-------|

|---------------------------------|
|---------------------------------|
|---------------------------------|
|-------------------------1---1-3-|
|-1-1-2-1-2-1-1-4-1-2-1-1---1-----|

|---------------------------------|
|---------------------------------|
|---------------------------------|
|-------------------2-4-5---4-6-7-|
|-1-1-2-1-2-1-1-1-2-------5-------|  play this through twice

chorus

|-----------------------------------------------------------------|
|-----------------------------------------------------------------|
|-----------------------------------------------------------------|
|-4-4-4-4-4-4-4-4-4-4-4-4-4-4-4-4-6-6-6-6-6-6-6-6-6-6-6-6-6-6-6-6-|
|-----------------------------------------------------------------|

|-----------------------------------------------------------------|
|-----------------------------------------------------------------|
|-----------------------------------------------------------------|
|-3-3-3-3-3-3-3-3-3-3-3-3-3-3-3-3-4-4-4-4-4-4-4-4-4-4-4-4-3-3-3-3-|
|-----------------------------------------------------------------|

|-----------------------------------------------------------------|
|-----------------------------------------------------------------|
|-----------------------------------------------------------------|
|-1-1-1-1-1-1-1-1-1-1-1-1-1-1-1-1-3-3-3-3-3-3-3-3-3-3-3-3-3-3-3-3-|
|-----------------------------------------------------------------|

|-----------------------------------------------------------------|
|-----------------------------------------------------------------|
|-----------------------------------------------------------------|
|-4-4-4-4-4-4-4-4-4-4-4-4-4-4-4-4-6-6-6-6-6-6-6-6-8-8-8-8-8-8-8-8-|
|-----------------------------------------------------------------|

bridge

|------------------|
|------------------|
|------------------|
|------------------|
|-1111-1-1-1-1-1-1-|

|---------------|
|---------------|
|---------------| (we...are...nem...e...sis)
|---------------|
|-1--1--1--1--1-|

the fun riff =)

|----------------------------------------------------------9-12-11-9-------|
|--------------------------------------------------8-11-10-----------12-10-|
|-------------------------------------------7-10-9-------------------------|
|-------------------------------------6-9-8--------------------------------|
|-1111-1-1-1-1-1-1-1111-1-1-1-1-1-1-7--------------------------------------|

last chorus

|-----------------------------------------------------------------|
|-----------------------------------------------------------------|
|-----------------------------------------------------------------|
|-7-7-7-7-7-7-7-7-7-7-7-7-7-7-7-7-9-9-9-9-9-9-9-9-9-9-9-9-9-9-9-9-|
|-----------------------------------------------------------------|

|-----------------------------------------------------------------|
|-----------------------------------------------------------------|
|-----------------------------------------------------------------|
|-6-6-6-6-6-6-6-6-6-6-6-6-6-6-6-6-7-7-7-7-7-7-7-7-7-7-7-7-7-7-7-7-|
|-----------------------------------------------------------------|

i dont bother with the chord pattern i use on the first 2 choruses on the last one, i
it sounds too messy so just play this over until the end.

            
            
Suggest correction
Creating personal tab
Creating personal tab
You can edit any tab online and save it as your Personal.

You can edit, replace or remove any tab part or add personal notes – all changes will be seen only by you.

Personal tabs can be accessed anytime from any device, even offline.
Learn more »
Give kudos to tab author, rate the tab!
1 2 3 4 5
comments
print report bad tab
3 comments total.
0 reply
Satan Man 1,286 Dec 30, 2006 08:25 AM

tuning?

0 reply
Satan Man 1,286 Dec 30, 2006 08:25 AM

tuning?

0 reply
Satan Man 1,286 Jan 13, 2007 07:15 AM

its played on a 4 string in the video

guest
You may want to rate the tab now too:
select rating
Wanna post a correction for this tab? Suggest correction