Oops, an error
Loading. Please wait.

Not Long For This World Tab

version 1
version 1

Whole song

Interactive

2,166 views 18 this week
6 commentsread comments
1 2 3 4 5
excellent!
x 3
add to favorites
launch autoscroll
font size
0
reset
how to read this tab
guitar tuner
Tab Pro tools
  • play this tab
  • loop segment
  • change instrument
  • show fretboard
  • metronome
×
Best way to learn
"Not Long For This World"
Autoscroll
slow
fast
+/-
esc
set tempo
stop
Contributor
Difficulty
Tuning
novice
D A D G B E
-------------------------------------------------------------------------------
                  NOT LONG FOR THIS WORLD - Arch Enemy
-------------------------------------------------------------------------------
Tabbed by: Exyther
E-mail: youri.peskine@gmail.com

Tuning: Drop D

PART 1 :
e||----------------|----------------|----------------|----------------|----------------|----------------|
B||----------------|----------------|----------------|----------------|----------------|----------------|
G||----------------|----------------|----------------|----------------|----------------|----------------|
D||----------------|----------------|----------------|----------------|----------------|----------------|
A||----3-3---------|----5-5---------|----6-6-----5-8-|----6-5-----3---|----------------|----------------|
D||5---------------|5---------------|5---------------|----------------|4---------------|--------1--3--1-|

e||----------------|----------------|
B||----------------|----------------|
G||----------------|----------------|
D||----------------|----------------|
A||------------3---|2h3p2h3p2-------|
D||5---------------|----------------|


---------------------------------------------------------------------------------------------------------


PART 2 :
e||----------------|----------------|----------------|----------------|----------------|----------------|
B||----------------|----------------|----------------|----------------|----------------|----------------|
G||----5-5---------|----7-7---------|----8-8-----7-10|----8-7-----5---|----------------|----------------|
D||5---------------|5---------------|5---------------|----------------|4---------------|--------1--3--1-|
A||----------------|----------------|----------------|----------------|----------------|----------------|
D||----------------|----------------|----------------|----------------|----------------|----------------|

e||----------------|----------------|
B||----------------|----------------|
G||------------5---|4h5p4h5p4-------|
D||5---------------|----------------|
A||----------------|----------------|
D||----------------|----------------|


---------------------------------------------------------------------------------------------------------


PART 3 : Play the first Bar (Measure) only 1 time.                  
e|----------------||----------------|----------------|----------------|----------------|----------------|
B|----------------||----------------|----------------|----------------|----------------|----------------|
G|----------------||----------------|----------------|----------------|----------------|----------------|
D|--------5-353---||--------5-------|3-------3-1-0---|---------3------|1-------1-0-----|--------1-------|
A|-------------65-||3---------------|--------------3-|1---------------|------------3-1-|----------------|
D|----------------||----------------|----------------|----------------|----------------|6---------------|
                                                                   
e|----------------|----------------|----------------||
B|----------------|----------------|----------------||
G|----------------|----------------|----------------||
D|0-------0--1--3-|5---------------|4-------5-353---||
A|----------------|----------------|-------------65-||
D|----------------|----------------|----------------||


---------------------------------------------------------------------------------------------------------


PART 4 : Play the first Bar (Measure) only 1 time.
e|----------------||----------------|----------------|----------------|----------------|----------------|
B|--------8-686---||--------8-------|6-------6-4-3---|---------6------|4-------4-3-----|--------4-------|
G|-------------87-||5---------------|--------------5-|3---------------|------------5-3-|1---------------|
D|----------------||----------------|----------------|----------------|----------------|----------------|
A|----------------||----------------|----------------|----------------|----------------|----------------|
D|----------------||----------------|----------------|----------------|----------------|----------------|
                  
                                                    
e|----------------|----------------|----------------||
B|3-------3--4--6-|8---------------|--------8-686---||
G|----------------|----------------|-------------87-||
D|----------------|----------------|----------------||
A|----------------|----------------|----------------||
D|----------------|----------------|----------------||


---------------------------------------------------------------------------------------------------------


PART 5 :
e||----------------|----------------|----------------|----------------|----------------|----------------|
B||----------------|----------------|----------------|----------------|----------------|----------------|
G||----------------|----------------|----------------|----------------|----------------|----------------|
D||----------------|5---------------|----------------|5---------------|----------------|----------------|
A||5---------------|3---------------|5---------------|3---------------|4---------------|----------------|
D||5---------------|----------------|5---------------|----------------|4---------------|----------------|


e||----------------|----------------|
B||----------------|----------------|
G||----------------|----------------|
D||----------------|----------------|
A||5---------------|----------------|
D||5---------------|----------------|


--------------------------------------------------------------------------------------------------------


PART 6 : Play the first Bar (Measure) only 1 time.
e|----------------||----------------|----------------|----------------|----------------|----------------|
B|----------------||----------------|----------------|----------------|----------------|----------------|
G|----------------||----------------|----------------|----------------|----------------|----------------|
D|-------------x\-||5---------------|10--------------|3---------------|8---------------|----------------|
A|-------------x\-||3---------------|8---------------|1---------------|6---------------|6---------------|
D|----------------||----------------|----------------|----------------|----------------|6---------------|

e|----------------|----------------|----------------||
B|----------------|----------------|----------------||
G|----------------|----------------|----------------||
D|7---------------|5---------------|4---------------||
A|5---------------|3---------------|2---------------||
D|----------------|----------------|----------------||

--------------------------------------------------------------------------------------------------------

HOW TO PLAY :

    | Guitar 1| Guitar 2| Guitar 3|       Time
 ----------------------------------------------------
 1. | NOTHING | NOTHING | NOTHING | from 0.00 to 0.03
 2. |  PART 1 | NOTHING |  PART 5 | from 0.04 to 0.22                                        
 3. |  PART 1 | NOTHING |  PART 5 | from 0.23 to 0.40
 4. |  PART 1 |  PART 2 |  PART 5 | from 0.41 to 1.00
 5. |  PART 3 |  PART 4 |  PART 6 | from 1.01 to 1.18
 6. |  PART 3 |  PART 4 |  PART 6 | from 1.19 to 1.36
 7. |  PART 1 | NOTHING |  PART 5 | from 1.37 to 1.55
 8. |  PART 1 |  PART 2 |  PART 5 | from 1.56 to 2.15
 9. |  PART 3 |  PART 4 |  PART 6 | from 2.16 to 2.33
10. |  PART 3 |  PART 4 |  PART 6 | from 2.34 to 2.53
11. | NOTHING | NOTHING | NOTHING | from 2.54 to 3.29


This tab isn't 100% accurate, but I think it's close from the original version.
I think the part 5 and 6 have a lot of error, it's hard to hear the rythm guitar in this instrumental.
I also think that Amott isn't playing on Drop D.
That's all I wanted to say... if you have something to add,
you can contact me at my E-mail.

ENJOY !

EDIT :
You can find the Guitar Pro version here :
http://tabs.ultimate-guitar.com/a/arch_enemy/not_long_for_this_world_guitar_pro.htm

************************************

| /   slide up
| \   slide down
| h   hammer-on
| p   pull-off
| ~   vibrato
| +   harmonic
| x   Mute note
| b   Bend
| pb  Pre-bend
| br  Bend release
| pbr Pre-bend release
| brb Bend release bend

************************************
comments
We did not receive enough feedback on this tab! Please rate:
print report bad tab
1 2 3 4 5
6 comments total. Showing first comments.
0 reply
MetalSaint wrote on June 13 2014, 07:22 am

Thanks but can you make in Guitar Pro ?

0 reply
Exyther wrote on June 13 2014, 07:31 am

I've already done it... the version is in review from Ultimate-Guitar.
I can give you a download link if you want :
http://www.mediafire.com/download/drj2t22clwl36at/Arch+Enemy+-+Not+Long+For+This+World.gp5

0 reply
MetalSaint wrote on June 13 2014, 07:36 am

Thanks man!

I want to post or [tab]
guest
You may want to rate the tab now too:
select rating
Please do not post tabs as comments. Select "correction" instead!