Oops, an error
Loading. Please wait.

Might Tab

3,489 views 18 this week
1 commentread comment
1 2 3 4 5
x 3
add to favorites
launch autoscroll
font size
0
reset
how to read this tab
guitar tuner
×
Best way to learn
"Might"
Autoscroll
slow
fast
+/-
esc
set tempo
stop
Author
-------------------------------------------------------------------------------
                             MIGHT - Archers of Loaf
-------------------------------------------------------------------------------

Tabbed by: Zane "o mack"
Email: toadiesrock@yahoo.com

Tuning: Standard

This is the bare bones of the song. I couldn't really figure out what the second guitar 
doing most of the time.

------
INTRO
------

e|---------------------------------------------------------------------------------|
B|---------------------------------------------------------------------------------|
G|-----4------4------4-------4-----------------------------------------------------|
D|---2------2------2-------2-------------------------------------------------------|
A|---------------2-----2-0-----0---------------------------------------------------|
E|-0------0------------------------------------------------------------------------|

Verse: E B
Chorus:
Guitar 1: A G# C# B
Guitar 2:
e|---------------------|
B|-10---9----14---12---|
G|-12b--11b--16b--14b--|
D|---------------------|
A|---------------------|
E|---------------------|
Suggest correction
Give kudos to tab author, rate the tab!
1 2 3 4 5
comments
print report bad tab
1 comment total.
0 reply
Dieu des hommes 248 Apr 07, 2015 04:23 PM

££I think it's more like

e|--------------------------------------------------|
B|--------------------------------------------------|
G|-------4--------4--------------4------------4-----|
D|----2-----2--2-----2--1-----1------------2--------|
A|-------------------------2---------2--0-----------|
E|-0------------------------------------------------|

guest
You may want to rate the tab now too:
select rating
Wanna post a correction for this tab? Suggest correction