Oops, an error
Loading. Please wait.

Borrowed Time Tab

2,645 views 1 this week
1 commentread comment
1 2 3 4 5
2 more votes to show rating
add to favorites
launch autoscroll
font size
0
reset
how to read this tab
guitar tuner
Autoscroll
slow
fast
+/-
esc
set tempo
stop
Help us to improve Ultimate-Guitar.com Take our survey!
×
Difficulty
Tuning
novice
C G C G C E
-------------------------------------------------------------------------------
                             Borrowed Time - Architects
-------------------------------------------------------------------------------
Tabbed by: Oscar
Email:manuel1753@sbcglobal.net

Tuning: Open C#
                                                                               
c#|---------------------------------------------------------------------------|
G#|-----------------------------------------------------0-0-0-----------------|
 E|-----------------------------------------------------0-0-0-----------------|
 B|---4/5\4--4--4-4---4/5\4--4--4-4---4/8-8-8-8-8-8\5-5-5-5-5-----------------|
F#|---2/3\2--2--2-2---2/3\2--2--2-2---2/6-6-6-6-6-6\3-3-3-3-3-----------------| 
C#|---------------------------------------------------------------------------|\
                                                                               x2
c#|---------------------------------------------------------------------------|/
G#|-----------------------------------------------------0-0-0-----------------|
 E|-----------------------------------------------------0-0-0-----------------|
 B|---4/5\4--4--4-4---4/5\4--4--4-4---2-2-2-2-2-2-4-4-4-4-4-4-----------------|
F#|---2/3\2--2--2-2---2/3\2--2--2-2---0-0-0-0-0-0-2-2-2-2-2-2-----------------| 
C#|---------------------------------------------------------------------------|

c#|---------------------------------------------------------------------------|
G#|--------------------------------------------------0-0-0--------------------|
 E|--------------------------------------------------0-0-0--------------------|
 B|--4--4-4-------4/5\4/8-8-8------4--4-4------8-8-8\5-5-5--------------------|x2
F#|--2--2-2-7\2---2/3\2/6-6-6------2--2-2---2--6-6-6\3-3-3--------------------|
C#|-----------0---------------------------7\0---------------------------------|

c#|---------------------------------------------------------------------------|
G#|-----------------------------------------------------0-0-0-----------------|
 E|-----------------------------------------------------0-0-0-----------------|
 B|--4--4-4---4--4-4---4--4-4---------4--4-4------8-8-8\5-5-5-----------------|
F#|--2--2-2---2--2-2---2--2-2-3p0-2---2--2-2-7\2--6-6-6-3-3-3-----------------|
C#|-------------------------------0------------0------------------------------|

c#|-----------------------------------------6p3p0---------------5p2p0---------|
G#|------------------------------------------------5p2p0---------------4p1p0--|
 E|---------------------------------------------------------------------------|
 B|--4--4-4---4--4-4-------4--4-4-------8-5----------------7-4----------------|
F#|--2--2-2---2--2-2-3p02--2--2-2-7\2---6-3----------------5-2----------------|
C#|---------------------0-----------0-----------------------------------------|
           
c#|---------------------------------------------------------------------------|
G#|-------1/13----------1/13--------------------------------------------------|
 E|-------4/16----------4/16--------------------------------------------------|x2
 B|---------------------------------------------------------------------------|
F#|--2--------------2-------------3------2------------------------------------|
C#|--0--------------0----------------2------1---------------------------------|

c#|---------------------------------------------------------------------------|
G#|--------------------------------------------------0-0-0--------------------|
 E|--------------------------------------------------0-0-0--------------------|
 B|--4--4-4-------4/5\4/8-8-8------4--4-4------8-8-8\5-5-5--------------------|x2
F#|--2--2-2-7\2---2/3\2/6-6-6------2--2-2---2--6-6-6\3-3-3--------------------|
C#|-----------0---------------------------7\0---------------------------------|





c#|---------------------------------------------------------------------------|
G#|-----------------------------------------------------0-0-0-----------------|
 E|-----------------------------------------------------0-0-0-----------------|
 B|---4/5\4--4--4-4---4/5\4--4--4-4---4/8-8-8-8-8-8\5-5-5-5-5-----------------|
F#|---2/3\2--2--2-2---2/3\2--2--2-2---2/6-6-6-6-6-6\3-3-3-3-3-----------------| 
C#|---------------------------------------------------------------------------|\
                                                                               x2
c#|---------------------------------------------------------------------------|/
G#|-----------------------------------------------------0-0-0-----------------|
 E|-----------------------------------------------------0-0-0-----------------|
 B|---4/5\4--4--4-4---4/5\4--4--4-4---2-2-2-2-2-2-4-4-4-4-4-4-----------------|
F#|---2/3\2--2--2-2---2/3\2--2--2-2---0-0-0-0-0-0-2-2-2-2-2-2-----------------| 
C#|---------------------------------------------------------------------------|

c#|---------------------------------------------------------------------------|
G#|---------------------------------------------------------------------------|
 E|--9--------7--------6--------16--------18-------21-------19--------18------|
 B|--x-(x24)--x-(x12)--x-(x12)---x-(x12)---x-(x6)---x-(x6)---x-(x12)---x-(x1)-|
F#|--7--------5--------4--------14--------16-------19-------17--------16------|
C#|---------------------------------------------------------------------------|


c#|---------------------------------------------------------------------------|
G#|---------------------------------------------------------------------------|
 E|---------------------------------------------------------------------------|
 B|--4--4-4---4--4-4----------------------------------------------------------|
F#|--2--2-2---2--2-2-3p02----2-2----2----2-2----2-----------------------------|
C#|---------------------0----0-0----0----0-0----0-----------------------------|




************************************

| /   slide up
| \   slide down
| h   hammer-on
| p   pull-off
| ~   vibrato
| +   harmonic
| x   Mute note
| b   Bend
| pb  Pre-bend
| br  Bend release
| pbr Pre-bend release
| brb Bend release bend

************************************
Suggest correction
Give kudos to tab author, rate the tab!
1 2 3 4 5
comments
print report bad tab
1 comment total.
-1 reply
screamokid2k 31 Oct 24, 2010 11:09 AM

they actually tune the low C# down to G# for this song
so its the same tuning they use for early grave and dead march

guest
You may want to rate the tab now too:
select rating
Wanna post a correction for this tab? Suggest correction