Oops, an error
Loading. Please wait.

Daybreak Tab

version 1
version 1

Whole song

Interactive

7,850 views 24 this week
no commentswrite comment
1 2 3 4 5
x 3
add to favorites
launch autoscroll
font size
0
reset
how to read this tab
guitar tuner
×
Best way to learn
"Daybreak"
Autoscroll
slow
fast
+/-
esc
set tempo
stop
Author
Difficulty
  follow
intermediate
[Riff 1]
Db|-0---------------------2-2-0----------14----------------|
Ab|-0---------------------5-5-0-------------12-------------|
E |--4--------------------0-0-4-----9-11-------9-4-------4-|
B |--2------------------------2--------------------5-4-5---|
Gb|-3-------------------------3----------------------------|
Db|--------------------------------------------------------|

Db|-2-2-0---8-------------|
Ab|-5-5-3-----8-7---------|
E |-0-0-5---------5-4-----|
B |-----4-------------5-4-|
Gb|-----0-----------------|
Db|-----------------------|

[Riff 1 Ending]
Db|----------14----------------|
Ab|-------------12-------------|
E |------9-11-------9-4-------4-|
B |---------------------5-4-5---|
Gb|-2-2------------------------|
Db|-0-0------------------------|

[Riff 2]
(guitar 1)
Db|--------------------------------|
Ab|--------------------------------|
E |-5------0-----------------------|
B |-5------4-------5-------4-------|
Gb|-3------2-------5-------5-------|
Db|--(x16)-3-(x16)-3-(x16)-2-(x16)-|

(guitar 2)
Db|-----15p0--------15p0-------------|
Ab|----------------------------------|
E |-0-0-----5-4-0-0------5-4-------4-|
B |--------------------------5-4-5---|
Gb|----------------------------------|
Db|----------------------------------|

Db|-----14p0--------14p0-------------|
Ab|----------------------------------|
E |-0-0-----5-4-0-0------5-4-------4-|
B |--------------------------5-4-5---|
Gb|----------------------------------|
Db|----------------------------------|

Db|----------14----------------|
Ab|-------------12-------------|
E |-----9-11-------9-4-------4-|
B |--------------------5-4-5---|
Gb|-2-2------------------------|
Db|-0-0------------------------|

[Riff 3]
Db|--------14------------15p0------------8-7---------------|
Ab|-----------12-----------------------------8-7-----------|
E |---9-11-------9-4----------11-9-4p0-----------4---------|
B |------------------------------------------------5-4-----|
Gb|-2----------------2-2---------------2---------------2-2-|
Db|-0----------------0-0---------------0---------------0-0-|

[Riff 3 Ending]
Db|----------------|
Ab|----------------|
E |----------------|
B |----------------|
Gb|-2-2--2-5-5-5-5-|
Db|-0-0--0-2-2-2-2-|

[Riff 4]
Db|------------------------------------------------|
Ab|------------------------------------------------|
E |-5------0---------------------------------------|
B |-5------4-------5-------------------------------|
Gb|-3------2-------5-------2-2--2-----------2-2--2-|
Db|--(x16)-3-(x8)--3-(x8)--0-0--0-<3>-(x12)-0-0--0-|

Db|-------------------------------------------------------------------------|
Ab|-------------------------------------------------------------------------|
E |------------------9-9-9--------------------------------------------------|
B |------------------9-9-9--------------------------------------------------|
Gb|-----------2-2--2-7-7-7-2-2--2-----------2-2--2-----------2-2--2-5-5-5-5-|
Db|-<3><3><3>-0-0--0-------0-0--0-<3>-(x12)-0-0--0-<3><3><3>-0-0--0-2-2-2-2-|

Db|----------------------------------------------------|
Ab|----------------------------------------------------|
E |-5------0-------------------------------------------|
B |-5------4-------5--------------9-9-9----------------|
Gb|-3------2-------5-------2-2--2-7-7-7---2-2--2-2-2-2-|
Db|--(x16)-3-(x8)--3-(x8)--0-0--0---------0-0--0-0-0-0-|
Pm                                              . . .

Db|------------------8-7-----------|
Ab|----------------------8-7-------|
E |---------9-9-9------------5-4---|
B |---------9-9-9----------------5-|
Gb|--2-2--2-7-7-7-2----------------|
Db|--0-0--0-------0----------------|

Db|------------------------------------------------|
Ab|------------------------------------------------|
E |-5------0---------------------------------------|
B |-5------4-------5-------------------------------|
Gb|-3------2-------5-------2-2--2-----------2-2--2-|
Db|--(x16)-3-(x8)--3-(x8)--0-0--0-<3>-(x12)-0-0--0-|

Db|-------------------------------------------------------------------------|
Ab|-------------------------------------------------------------------------|
E |------------------9-9-9--------------------------------------------------|
B |------------------9-9-9--------------------------------------------------|
Gb|-----------2-2--2-7-7-7-2-2--2-----------2-2--2-----------2-2--2-5-5-5-5-|
Db|-<3><3><3>-0-0--0-------0-0--0-<3>-(x12)-0-0--0-<3><3><3>-0-0--0-2-2-2-2-|

[Riff 1]
Db|--2-2-0----------14----------------|
Ab|--5-5-0-------------12-------------|
E |--0-0-4-----9-11-------9-4-------4-|
B |------2--------------------5-4-5---|
Gb|------3----------------------------|
Db|-----------------------------------|

Db|-2-2-0---8-------------|
Ab|-5-5-3-----8-7---------|
E |-0-0-5---------5-4-----|
B |-----4-------------5-4-|
Gb|-----0-----------------|
Db|-----------------------|

[Riff 5]
Db|--------0--------|
Ab|--------0--------|
E |--0-----4--------|
B |-2--4-0-2--------|
Gb|--------3--------|
Db|-----------------|

[riff 6]
Db|---14p0--------------15p0--------------17p0--------------19p0-----------|
Ab|------------------------------------------------------------------------|
E |-12-----12p0-(x3)-12------12p0-(x3)-14------14p0-(x3)-17------17p0-(x3)-|
B |------------------------------------------------------------------------|
Gb|------------------------------------------------------------------------|
Db|------------------------------------------------------------------------|


************************************

| b  Bend
| p  Pull-off
| .  Staccato

************************************
Suggest correction
Give kudos to tab author, rate the tab!
1 2 3 4 5
comments
print report bad tab
guest
You may want to rate the tab now too:
select rating
Wanna post a correction for this tab? Suggest correction