Oops, an error
Loading. Please wait.

Early Grave Bass Tab

version 1
version 1

Whole song

Interactive

8,957 views 6 this week
1 commentread comment
1 2 3 4 5
please rate
add to favorites
launch autoscroll
font size
0
reset
guitar tuner
Autoscroll
slow
fast
+/-
esc
set tempo
stop
Help us to improve Ultimate-Guitar.com Take our survey!
×
#----------------------------------PLEASE NOTE---------------------------------#
#This file is the author's own work and represents their interpretation of the #
#song. You may only use this file for private study, scholarship, or research. #
#------------------------------------------------------------------------------##

                             EARLY GRAVE (Bassline)
                            As recorded by Achitects
                       (From the 2009 Album HOLLOW CROWN)

Words by Sam Carter

Music by Achitects
Transcribed by Jason Simpkin & Austin Mills

Gtr I (G# F# B E) - 'w/pick'

    Fast Metalcore Q=170
   7/8
    Gtr I
    E S S E S S E E S S   E S S E S S E E S S
||----------------------|---------------------|
||o---------------------|---------------------|
||o-------------2-------|-------------2-------|
||--0-0-0-0-0-0---1-0-0-|-0-0-0-0-0-0---1-0-0-|


  E S S E S S E E S S   E S S E S S E E S S
|---------------------|----------------------|
|---------------------|----------------------|
|-------------2-------|-------------2--------|
|-0-0-0-0-0-0---1-0-0-|-0-0-0-0-0-0---1-0-0--|


 4/4
  E E E E E E E E   E E E E E E E E
|-----------------|------------------||-|
|-----------------|-----------------o||-|
|-----------------|---5-5-5-5-3-3-3-o||-|
|-4-4-4-1-1-1-0-0-|-0----------------||-|


    E E E E E E E E   E E E E E E E E   3x
||------------------|-------------------||
||o-----------------|------------------o||
||o-----------------|---5-5-5-5-3-3-3--o||
||--4-4-4-1-1-1-0-0-|-0-----------------||


                               5/4
    E E S S S S S S S S S S E   E E E S S S S S S S S S S S S S S
||----------------------------|-----------------------------------|
||o---------------------------|-----------------------------------|
||o-------------------0h3h6---|-----------------------------------|
||--0---0-0-0-0-0h1h4-------0-|---0---0-0-3-3-3-3-3-3-3-3-3-3-3-3-|


 4/4                     5/4
  Q  Q  S S S S S S S S   S S S S E. E. E E. E. E
|-----------------------|--------------------------||
|---------------------0h|=4h7---------------------o||
|---------------0h3h6---|-----------------6-------o||
|-4--1--0-0---0---------|-----0-0-3--0--1----0--1--||


   4/4
    Q  S S S S Q  S S E   +E  S S Q  S S S S S S S S
||----------------------|----------------------------|
||o---------------------|----------------------------|
||o------------2--------|---------2------------------|
||--0--0-0-0-0----0-0-0-|-(0)-0-0----0-0---0-0-0-0-0-|


  Q  S S S S Q  S S S S   Q.   E  H    a
|-----------------------|-----------------||
|-----------------------|----------------o||
|------------2----------|----------------o||
|-0--0-0-0-0----0-0-0-0-|------0-12s===0--||


   7/8
    E S S E S S E E S S   E S S E S S E E S S
||----------------------|---------------------|
||o---------------------|---------------------|
||o-------------2-------|-------------2-------|
||--0-0-0-0-0-0---1-0-0-|-0-0-0-0-0-0---1-0-0-|


  E S S E S S E E S S   E S S E S S E E S S
|---------------------|----------------------|
|---------------------|----------------------|
|-------------2-------|-------------2--------|
|-0-0-0-0-0-0---1-0-0-|-0-0-0-0-0-0---1-0-0--|


 4/4
  E E E E E E E E   E E E E E E E E     E E E E E E E E   E E E E E E E E
|-----------------|------------------||-----------------|-----------------||
|-----------------|-----------------o||-----------------|-----------------||
|-----------------|---5-5-5-5-3-3-3-o||-----------------|---5-5-5-5-3-3-3-||
|-4-4-4-1-1-1-0-0-|-0----------------||-4-4-4-1-1-1-0-0-|-0---------------||


  E. E. E H      E. E. E E. E. E   E. E. E H      E. E. E E S S S S S S
|--------------|---------4-------|--------------|---------4-------------|
|--------------|-----------------|--------------|-----------------------|
|-2--2---------|-3-----3----2--3-|-2--2---------|-3-----3---------------|
|-------0-0----|----0------------|-------0-0----|----0------0-0-0-0-0-0-|


  E. E. E H      E. E. E E. E. E   E. E. E H      E. E. E E S S S E.
|--------------|---------4-------|--------------|---------4----------||
|--------------|-----------------|--------------|--------------------||
|-2--2---------|-3-----3----2--3-|-2--2---------|-3-----3------------||
|-------0-0----|----0------------|-------0-0----|----0------0-0-0----||


    E. E. E H      E. E. E E. E. E   E. E. E H      E. E. E E S S S S S S
||---------------|---------4-------|--------------|---------4--------------|
||o--------------|-----------------|--------------|------------------------|
||o-2--2---------|-3-----3----2--3-|-2--2---------|-3-----3----------------|
||--------0-0----|----0------------|-------0-0----|----0------0-0-0-0-0-0--|


  E. E. E H      E. E. E E. E. E   E. E. E H
|--------------|---------4-------|--------------|
|--------------|-----------------|--------------|
|-2--2---------|-3-----3----2--3-|-2--2---------|
|-------0-0----|----0------------|-------0-0----|


 1.                   2.
  E. E. E E S S Q      E. E. E E. E. E
|---------4---------||------------------||
|------------------o||------------------||
|-3-----3----------o||---------6--------||
|----0------0-0-0---||-3--0--1----0--1--||


                               5/4
    E E S S S S S S S S S S E   E E E S S S S S S S S S S S S S S
||----------------------------|-----------------------------------|
||o---------------------------|-----------------------------------|
||o-------------------0h3h6---|-----------------------------------|
||--0---0-0-0-0-0h1h4-------0-|---0---0-0-3-3-3-3-3-3-3-3-3-3-3-3-|


 4/4                     5/4
  Q  Q  S S S S S S S S   S S S S E. E. E E. E. E
|-----------------------|--------------------------||
|---------------------0h|=4h7---------------------o||
|---------------0h3h6---|-----------------6-------o||
|-4--1--0-0---0---------|-----0-0-3--0--1----0--1--||


   4/4
    Q  S S S S Q  S S E   +E  S S Q  S S S S S S S S
||----------------------|----------------------------|
||o---------------------|----------------------------|
||o------------2--------|---------2------------------|
||--0--0-0-0-0----0-0-0-|-(0)-0-0----0-0---0-0-0-0-0-|


  Q  S S S S Q  S S S S   Q.   E  H    a
|-----------------------|-----------------||
|-----------------------|----------------o||
|------------2----------|----------------o||
|-0--0-0-0-0----0-0-0-0-|------0-12s===0--||


   7/8
    E E E E E E E   E E E E E E E   E E E E E E E   E E E E E E E
||----------------|---------------|---------------|---------------|
||o---------------|---------------|---------------|---------------|
||o---------------|---------------|---------------|---------------|
||--0-0-0-0-0-0-0-|-0-0-0-0-0-0-0-|-0-0-0-0-0-0-0-|-0-0-0-0-0-0-0-|


  E E E E E E E   E E E E E E E   E E E E E E E   E E E E E E E
|---------------|---------------|---------------|----------------||
|---------------|---------------|---------------|---------------o||
|---------------|---------------|---------------|---------------o||
|-3-3-3-3-3-3-3-|-3-3-3-3-3-3-3-|-3-3-3-3-3-3-3-|-3-3-3-3-3-3-3--||


  E E E E E E E   E E E E E E E   E E E E E E E   E E E E E E E
|---------------|---------------|---------------|---------------|
|---------------|---------------|---------------|---------------|
|---------------|---------------|---------------|---------------|
|-2-2-2-2-2-2-2-|-2-2-2-2-2-2-2-|-2-2-2-2-2-2-2-|-2-2-2-2-2-2-2-|


  E E E E E E E   E E E E E E E   E E E E E E E   E E E E E E E
|---------------|---------------|---------------|---------------|
|---------------|---------------|---------------|---------------|
|---------------|---------------|---------------|---------------|
|-3-3-3-3-3-3-3-|-3-3-3-3-3-3-3-|-3-3-3-3-3-3-3-|-3-3-3-3-3-3-3-|


  E E E E E E E   E E E E E E E   E E E E E E E   E E E E E E E
|---------------|---------------|---------------|---------------||
|---------------|---------------|---------------|---------------||
|---------------|---------------|---------------|---------------||
|-2-2-2-2-2-2-2-|-2-2-2-2-2-2-2-|-2-2-2-2-2-2-2-|-2-2-2-2-2-2-2-||


 4/4
  E. E. E H      +W           +W           E. E. E E S S S S S S
|--------------|------------|------------|---------4--------------||
|--------------|------------|------------|------------------------||
|-2--2---------|------------|------------|-3-----3----------------||
|-------0-0----|-(0)--------|-(0)--------|----0------0-0-0-0-0-0--||


  E H..         Wx7
|-------------|--------|
|-------------|--------|
|-------------|--------|
|-0-----------|--------|


  E E E E E E E E   E E E E E E E E   E E E E E E E E   E E E E E E E E
|-----------------|-----------------|-----------------|-----------------|
|-----------------|-----------------|-----------------|-----------------|
|-----------------|-----------------|-----------------|---3-3-3-3-3-3-3-|
|-0-0-0-0-0-0-0-0-|-0-0-0-0-0-0-0-0-|-0-0-0-0-0-0-0-0-|-0---------------|


  E E E E E E E E   E E E E E E E E   E E E E E E E E   E H..
|-----------------|-----------------|-----------------|----------||
|-----------------|-----------------|-----------------|----------||
|-----------------|-----------------|-----------------|----------||
|-0-0-0-0-0-0-0-0-|-0-0-0-0-0-0-0-0-|-0-0-0-0-0-0-0-0-|-0--------||


    Gtr I
    E E E E E E E E   E E E E E E E E   E E E E E E E E   E E E E E E E E   4x
||------------------|-----------------|-----------------|-------------------||
||o-----------------|-----------------|-----------------|------------------o||
||o-----------------|-----------------|-----------------|---3-3-3-3-3-3-3--o||
||--0-0-0-0-0-0-0-0-|-0-0-0-0-0-0-0-0-|-0-0-0-0-0-0-0-0-|-0-----------------||


  E H..         W
|-------------|------*|
|-------------|------*|
|-3-----------|------*|
|-------------|------*|


Duration Legend
---------------
W - whole; H - half; Q - quarter; E - 8th; S - 16th; T - 32nd; X - 64th; a - acciaccatura
+ - note tied to previous; . - note dotted; .. - note double dotted
Uncapitalized letters represent notes that are staccato (1/2 duration)
Irregular groupings are notated above the duration line
Duration letters will always appear directly above the note/fret number it represents the
duration for.  Duration letters with no fret number below them represent rests.  Multi-
bar rests are notated in the form Wxn, where n is the number of bars to rest for.  Low
melody durations appear below the staff

Tablature Legend
----------------
 h   - hammer-on
 p   - pull-off
 b   - bend
 pb  - pre-bend
 r   - bend release (if no number after the r, then release immediately)
 /\  - slide into or out of (from/to "nowhere")
 s   - legato slide
 S   - shift slide
  - natural harmonic
[n]  - artificial harmonic
n(n) - tapped harmonic
 ~   - vibrato
 tr  - trill
 T   - tap
 TP  - trem. picking
 PM  - palm muting
\n/  - tremolo bar dip; n = amount to dip
 \n  - tremolo bar down
 n/  - tremolo bar up
/n\  - tremolo bar inverted dip
 =   - hold bend; also acts as connecting device for hammers/pulls
 <>  - volume swell (louder/softer)
 x   - on rhythm slash represents muted slash
 o   - on rhythm slash represents single note slash

Misc Legend
-----------
 |  - bar
||  - double bar
||o - repeat start
o|| - repeat end
*|  - double bar (ending)
 :  - bar (freetime)
 $  - Segno
 &  - Coda
Tempo markers -  = BPM(8/16=s8/s16), where s8 = swing 8ths, s16 = swing 16ths


***************************************************************************************
* Generated using Power Tab Editor by Brad Larsen - http://powertab.guitarnetwork.org *
***************************************************************************************
Suggest correction
Give kudos to tab author, rate the tab!
1 2 3 4 5
comments
print report bad tab
1 comment total.
0 reply
xTKsaucex 90 wrote on January 13 2010, 06:15 pm

Havn't got through all of it yet, but I know for a fact that this will be a 4 - 5 star tab. Well done, this wrecks your wrists though keeping up with a pick.

guest
You may want to rate the tab now too:
select rating
Wanna post a correction for this tab? Suggest correction