Oops, an error
Loading. Please wait.

Early Grave Tab

version 1
version 1

Whole song

Interactive

35,495 views 18 this week
20 commentsread comments
1 2 3 4 5
x 7
add to favorites
launch autoscroll
font size
0
reset
how to read this tab
guitar tuner
Autoscroll
slow
fast
+/-
esc
set tempo
stop
Help us to improve Ultimate-Guitar.com Take our survey!
×
Author
Architects - Early Grave
Composed by: Tom Searle
Tabbed by: David Carthy

C# Standard tuning, low string dropped to G#

. = Palm Mute
\ = Slide Down


OPENING RIFF

C#|--------------------------------------------------------|-------------|
G#|---REPEAT-TWICE-----------------------------------------|-------------|
E |--------------------------------------------------------|-------------|
B |--------------------------------------------------------|--8-4-3-7-5--|
F#|------------------2------------------------2------------|--6-3-2-5-3--|
G#|--0--0-0--0--0-0----0--0-0--0--0-0--0--0-0---0--0-0-----|-------------|
        . .     . .       . .     . .     . .      . .

C#|----------------------------------------------------------------------|
G#|---REPEAT-THREE-TIMES-------------------------------------------------|
E |----------------------------------------------------------------------|
B |--8--4--3--7----3-----------------------------------------------------|
F#|--6--3--2--5----5-----------------------------------------------------|
G#|----------------------------------------------------------------------|


VERSE RIFF 1 (REPEAT TWICE)

C#|----------------------------------------------------------------------|
G#|----------------------------------------------------------------------|
E |------------------------------------------------0-3-6-----------------|
B |----------------------------------------------------------------------|
F#|--------------------0-3-6------------------------------0-3-6----------|
G#|--0--0-0-0-0--0-1-4---------0--0--0---0-0--0-1-4---------------4\--0--|
        . . . .                .         . .

C#|----------------------------------------------------------------------|
G#|----------------------------------------------------------------------|
E |----------------------------------------------------------------------|
B |----------------------------------------------------------------------|
F#|-----------0-3-6--0-4-7---3-------6-----------------------------------|
G#|--0-0---0--------------------1-0-----0-1-0----------------------------|
     . .   .


VERSE RIFF 2 (REPEAT TWICE)

C#|----------------------------------------------------------------------|
G#|-------------1-------------1--------------------------1----------1----|
E |-------------4-------------4--------------------------4----------4----|
B |----------------------------------------------------------------------|
F#|----------------------------------------------------------------------|
G#|--0--0-0-0-0---0-0--0--0-0---0-0--0-0-0-0--0--0-0-0-0---0-0-0-0----12\|
        . . . .   . .     . .   . .  . . . .     . . . .   . . . .


BACK TO OPENING RIFF

C#|--------------------------------------------------------|-------------|
G#|---REPEAT-TWICE-----------------------------------------|-------------|
E |--------------------------------------------------------|-------------|
B |--------------------------------------------------------|--8-4-3-7-5--|
F#|------------------2------------------------2------------|--6-3-2-5-3--|
G#|--0--0-0--0--0-0----0--0-0--0--0-0--0--0-0---0--0-0-----|-------------|
        . .     . .       . .     . .     . .      . .


LEAD INTO BRIDGE 1

C#|--------------------|-------------------------|-----------------------|
G#|--------------------|-------------------------|----------0------------|
E |--------------------|-------------------------|----------0------------|
B |--8--4--3--7----3---|--4--4-------------------|-----------------------|
F#|--6--3--2--5----5---|--2--2-------------------|----2------------------|
G#|--------------------|--------0--0--LET-RING---|------1-0---0-0-0------|
                                .                             . . .


BRIDGE RIFF (REPEAT TWICE)

C#|----------------------------------------------------------------------|
G#|-----------------------0---------------------------0------------------|
E |-----------------------0---------------------------0------------------|
B |--4--4------------------------4--4------------------------------------|
F#|--2--2-----------2------------2--2-----------2------------------------|
G#|--------0--0-------1-0---0-1--------0--0-------1-0---0-0-0-0-0-0------|
           .                           .                . . . . . .

C#|----------------------------------------------------------------------|
G#|-----------------------0---------------------------0------------------|
E |-----------------------0---------------------------0------------------|
B |--4--4------------------------4--4------------------------------------|
F#|--2--2-----------2------------2--2-----------2------------------------|
G#|--------0--0-------1-0---0-1--------0--0-------1-0---0-0-0------------|
           .                           .                . . .

END OF BRIDGE RIFF

C#|-------------------|
G#|-------------------|
E |-------------------|
B |-------------------|
F#|--2------6---------|
G#|----1-0----0-1--0--|


BACK TO:
VERSE RIFF 1 (REPEAT TWICE)

C#|----------------------------------------------------------------------|
G#|----------------------------------------------------------------------|
E |------------------------------------------------0-3-6-----------------|
B |----------------------------------------------------------------------|
F#|--------------------0-3-6------------------------------0-3-6----------|
G#|--0--0-0-0-0--0-1-4---------0--0--0---0-0--0-1-4---------------4\--0--|
        . . . .                .         . .

C#|----------------------------------------------------------------------|
G#|----------------------------------------------------------------------|
E |----------------------------------------------------------------------|
B |----------------------------------------------------------------------|
F#|-----------0-3-6--0-4-7---3-------6-----------------------------------|
G#|--0-0---0--------------------1-0-----0-1-0----------------------------|
     . .   .


VERSE RIFF 2 (REPEAT TWICE)

C#|----------------------------------------------------------------------|-10-|
G#|-------------1-------------1--------------------------1----------1----|-14-|
E |-------------4-------------4--------------------------4----------4----|----|
B |----------------------------------------------------------------------|----|
F#|----------------------------------------------------------------------|----|
G#|--0--0-0-0-0---0-0--0--0-0---0-0--0-0-0-0--0--0-0-0-0---0-0-0-0----12\|----|
        . . . .   . .     . .   . .  . . . .     . . . .   . . . .


LEAD TAPPING (REPEAT FIRST TWO SECTIONS TWICE)

C#|--------------------|--17-0---5---------|--17-0---5---------|--10--------|
G#|--15-0-7-15-14-0-7--|-------3---14-0-3--|-------3---14-0-3--|------------|
E |--------------------|-------------------|-------------------|------------|
B |--TIMES-FOUR--------|--TIMES-FOUR-------|--REPEAT-UNTIL-END-|-PICK-NOTE--|
F#|--------------------|-------------------|-------------------|-LET-RING---|
G#|--------------------|-------------------|-------------------|------------|


BACKING CHORDS

C#|--------------------|-----|-----------------|----------------------------|
G#|--------------------|-----|-----------------|----------------------------|
E |--------------------|--9--|--9---6---9---6--|----------------------------|
B |--------------------|--7--|--7---2---7---2--|----------------------------|
F#|--------------------|--5--|--5---4---5---4--|----------------------------|
G#|--0--0-0-0--0--0-0--|--5--|--5-------5------|--0-LET-RING-OUT------------|
        . . .     . .


END OF TAPPING

C#|-----------------------|
G#|--------0--------------|
E |--------0--------------|
B |-----------------------|
F#|--2--------------------|
G#|----1-0---0-0-0-0-0-0--|

END RIFF / BREAKDOWN / FUN BIT

C#|----------------------------------------------------------------------|
G#|----------------------------------------------------1-1-1-1-1-1-1-----|
E |----------------------------------------------------4-4-4-4-4-4-4-----|
B |----------------------------------------------------------------------|
F#|----------------------------------------------------------------------|
G#|--0-0-0-0-0-0-0-0-0-0-0-0-0-0-0-0-0-0-0-0-0-0-0-0-0-------------------|
     . . . . . . . . . . . . . . . . . . . . . . . . .
Suggest correction
comments
print report bad tab
20 comments total. Showing first comments.
0 reply
YourMessiah666 577 Jan 23, 2009 02:44 PM

****in awesome. im so stoked for when the album comes out in Canada

-1 reply
TacoxCore 61 Jan 24, 2009 12:16 AM

Are you sure it's the right tuning? It's wierd. Shouldn't the low string be dropped to B?

0 reply
gigi666 40 Jan 24, 2009 09:20 AM

It's the correct tuning and have you even heard the song? There's no way the low string is dropped to B.

guest
You may want to rate the tab now too:
select rating
Wanna post a correction for this tab? Suggest correction