Oops, an error
Loading. Please wait.

Hollow Crown Tab

version 1
version 1

Whole song

Interactive

12,599 views 57 this week
1 commentread comment
1 2 3 4 5
excellent!
x 8
add to favorites
launch autoscroll
font size
0
reset
how to read this tab
guitar tuner
Autoscroll
slow
fast
+/-
esc
set tempo
stop
Help us to improve Ultimate-Guitar.com Take our survey!
×
Author
Difficulty
Tuning
novice
B F# B E G# C#
Artist: Architects
Song: Hollow Crown
Album: Hollow Crown
tabbed by: necriononguitar
e-mail (No freakin SPAM!): tim.rathgen@gmx.de

REAL FANS SUPPORT BANDS BY PURCHASING THEIR CDS!!!

. = Palm-Muted
~ = hold note
^ = vibrate
p = pull off
h = hammer on
/ = slide up
\ = slide down
* = harmonic


Tuning: Drop B

There was no tab for the song so i thought id take a look at it.
its actually pretty simple and it sounds awesome!
So enjoy ;D

The first part of the song doesnt really contain any guitar...

0:37-1:14
Guitar 1    (Tapping)
E---15p0---10p0---8----     -----8/10----7/8--------|
B----------------------     ------------------------|
G----------------------     ------------------------|
D---------------------- x3  ------------------------|
A----------------------     ------------------------|
E----------------------     ------------------------|


Guitar 2   low distorition
E----------------------------------------------------------------|
B----------------------------------------------------------------|
G------------------------------------------------------4~--------|
D---7~--------5~--7~--------5~--3~------5~--5~---------4~--------|
A---7~--------5~--7~--------5~--3~------5~--5~---------2~--------|
E---7~--------5~--7~--------5~--3~------5~--5~-------------------|

1:51-2:28
Guitar 1    (Tapping)
E---15p0---10p0---8----     -----8/10----7/8--------|
B----------------------     ------------------------|
G----------------------     ------------------------|
D---------------------- x3  ------------------------|
A----------------------     ------------------------|
E----------------------     ------------------------|


Guitar 2
low distorition
E----------------------------------------------------------------|
B----------------------------------------------------------------|
G------------------------------------------------------4~--------|
D---7~--------5~--7~--------5~--3~------5~--5~---------4~--------|
A---7~--------5~--7~--------5~--3~------5~--5~---------2~--------|
E---7~--------5~--7~--------5~--3~------5~--5~-------------------|


Guitar 3
E-----------------------------------------|
B-----------------------------------------|
G-----------------------------------------|
D---7-------------------5-----------------|  x2
A---7-7-7-7-7-7---------5-5-5-5-5-5-------|
E---7-7-7-7-7-7---x3----5-5-5-5-5-5-------|
      . . . . .           . . . . .

E------------------------------------------------------------------------------|
B------------------------------------------------------------------------------|
G------------------------------------------------------------------------------|
D---3--------------------4----------------5-------------------9----------------|
A---3-3-3-3-3-3----------5-5-5-5-5-5------5-5-5-5-5-5---------9-9-9-9-9-9------|
E---3-3-3-3-3-3---x3-----5-5-5-5-5-5------5-5-5-5-5-5--x2-----9-9-9-9-9-9--x2--|
      . . . . .            . . . . .        . . . . .           . . . . .

2:28-2:47
Guitar 1    Right Speaker
E----------------------------------------------------------------------------|
B----------------------------------------------------------------------------|
G----------------------------------------------------------------------------|
D---7~-----7~-----7~-----7--------------------------------------7-7-7-7-7-7--|
A---7~-----7~-----7~-----7-7-7-7-7-7--7-7-7-7-7-7--7-7-7-7-7-7--7-7-7-7-7-7--|
E---7~-----7~-----7~-----7-7-7-7-7-7--7-7-7-7-7-7--7-7-7-7-7-7--7-7-7-7-7-7--|
                           . . . . .  . . . . . .  . . . . . .


Guitar 2    Left Speaker
E-------------------------------------------------------------------|
B-------------------------------------------------------------------|
G-------------------------------------------------------------------|
D---10-------------10-------------10-------------9-9-9-9-9-9--------|  x4
A---7--7-7-7-7-7---7--7-7-7-7-7---7--7-7-7-7-7---7-7-7-7-7-7--------|
E---7--7-7-7-7-7---7--7-7-7-7-7---7--7-7-7-7-7---7-7-7-7-7-7--------|
       . . . . .      . . . . .      . . . . .


2:47-4:01
Guitar 1
E-----------------------------------------|
B-----------------------------------------|
G-----------------------------------------|
D----7-7-7-7-7-7--------5-5-5-5-5-5-------|  x2
A----7-7-7-7-7-7--x3----5-5-5-5-5-5-------|
E----7-7-7-7-7-7--------5-5-5-5-5-5-------|

E------------------------------------------------------------------|
B------------------------------------------------------------------|
G------------------------------------------------------------------|
D----3-3-3-3-3-3--------5-5-5-5-5-5--------9-9-9-9-9-9-------------|
A----3-3-3-3-3-3--x3----5-5-5-5-5-5--x3----9-9-9-9-9-9--x2---------|
E----3-3-3-3-3-3--------5-5-5-5-5-5--------9-9-9-9-9-9-------------|


Guitar 2   saem strumming as Guitar 1
E----------------------------|
B----------------------------|
G---17---------16------------|
D---x---x18----x---x5--------|   x3
A---15---------14------------|
E----------------------------|

E-------------------------------|
B-------------------------------|
G---19----------21--------------|
D---x---x12-----x---x12---------|
A---17----------19--------------|
E-------------------------------|


Guitar 3
E-------------------------------------------------------------------|
B-------------------------------------------------------------------|
G--4/5-5-5-5-5-5--5-5-5-5-5-5---5-5-5-5-5-5--4-4-4-4-4-4------------|
D--x/x-x-x-x-x-x--x-x-x-x-x-x---x-x-x-x-x-x--x-x-x-x-x-x------------|  x4
A--2/3-3-3-3-3-3--3-3-3-3-3-3---3-3-3-3-3-3--2-2-2-2-2-2------------|
E-------------------------------------------------------------------|

4:01-4:20
Guitar 1
E---------------------------------------------------------------------|
B---------------------------------------------------------------------|
G---------------------------------------------------------------------|
D----7~------7~------3~-----5--5--5--5--5--5----9-9-9-9-9-9-9---------|
A----7~------7~------3~-----5--5--5--5--5--5----9-9-9-9-9-9-9---------|
E----7~------7~------3~-----5--5--5--5--5--5----9-9-9-9-9-9-9---------|


Guitar 2
E---------------------------------------------------------------------|
B---------------------------------------------------------------------|
G----5~------5~------5~-----5--5--5--5--5--5----4-4-4-4-4-4-4---------|
D----x~------x~------x~-----x--x--x--x--x--x----x-x-x-x-x-x-x---------|
A----3~------3~------3~-----3--3--3--3--3--3----2-2-2-2-2-2-2---------|
E---------------------------------------------------------------------|


Guitar 3
E----------------------------------------------------------------------------|
B----------------------------------------------------------------------------|
G---17~-----17~-----16~----19--19--19--19--19--19----21-21-21-21-21-21-21----|
D---x-------x-------x------x---x---x---x---x---x-----x--x--x--x--x--x--x-----|
A---15~-----15~-----14~----17--17--17--17--17--17----19-19-19-19-19-19-19----|
E----------------------------------------------------------------------------|


and that's it! I hope this helped, please rate, comment and correct me!

Cheers...
Suggest correction
What's this?
You can suggest a correction to this tab. Community and Mods will review your correction and vote to approve or reject it.
comments
print report bad tab
1 comment total.
0 reply
xKnifekillerx 1,684 wrote on March 19 2011, 10:32 am

wrong tuning. its C# watch some live vids.

but its play correct. so yeah, good tab.

guest
You may want to rate the tab now too:
select rating
Please do not post tabs as comments. Select "correction" instead!