Oops, an error
Loading. Please wait.

The Blues Tab

1,717 views 1 this week
no commentswrite comment
1 2 3 4 5
please rate
add to favorites
launch autoscroll
font size
0
reset
how to read this tab
guitar tuner
Tab Pro tools
  • play this tab
  • loop segment
  • change instrument
  • show fretboard
  • metronome
Autoscroll
slow
fast
+/-
esc
set tempo
stop
Contributor
Artist: Architects 
Song: The Blues

(*)= Natural harmonic
(.)= Palm mute
(x)= Dead note

Tuning: C# F# B E G# C#

Intro:

Both Guitars: x2
C#|----------------------------------------------------------------------|
G#|----------------------------------------------------------------------|
E |----------------------------------------------------------------------|
B |-4~-44--44444444-----------444444-7777-2222---------------------------|
F#|-4~-44--44444444-----------444444-7777-2222---------------------------|
C#|-2~-22--22222222--33333333-222222-5555-0000---------------------------|
                     ********

Chorus:

Both Guitars:
C#|-----------------------------------------------------------------------|
G#|-----------------------------------------------------------------------|
E |-4444444444444444-7777777777777777------------------9999999999999999---|
B |-4444444444444444-7777777777777777-7777777777777777-9999999999999999---|
F#|-2222222222222222-5555555555555555-7777777777777777-7777777777777777---|
C#|-----------------------------------5555555555555555--------------------|

Verse:

Both Guitars: x2
C#|-------------------------99999999---------------------------------------------|
G#|-------------------------xxxxxxxx---------------------------------------------|
E |-------------------------77777777---------------------------------------------|
B |------------------------------------------------------------------------------|
F#|----------------------------------------------5p0-----------------------------|
C#|-2p0-0-2p0-0-2p0-0-2p0-0----------2p0-0-2p0-0----0h2p0-5~---------------------|


Both Guitars: x2
C#|------------------------------------------------------------------------------|
G#|------------------------------------------------------------------------------|
E |------------------------------------------------------------------------------|
B |------------------------------------------------------------------------------|
F#|----------------------------------------------5p0-----------------------------|
C#|-2p0-0-2p0-0-2p0-0-2p0-0----------2p0-0-2p0-0----0h2p0-5~---------------------|


Repeat Intro:

Both Guitars: x2
C#|----------------------------------------------------------------------|
G#|----------------------------------------------------------------------|
E |----------------------------------------------------------------------|
B |-4~-44--44444444-----------444444-7777-2222---------------------------|
F#|-4~-44--44444444-----------444444-7777-2222---------------------------|
C#|-2~-22--22222222--33333333-222222-5555-0000---------------------------|
                     ********

Repeat Chorus:

Both Guitars:
C#|-----------------------------------------------------------------------|
G#|-----------------------------------------------------------------------|
E |-----------------------------------------------------------------------|
B |-4444444444444444-7777777777777777------------------9999999999999999---|
F#|-4444444444444444-7777777777777777-7777777777777777-9999999999999999---|
C#|-2222222222222222-5555555555555555-7777777777777777-7777777777777777---|

Verse 2:

Guitar 1:
C#|-----------------------|
G#|-----7~~-----9~~-------|
E |-4~~-7~~-7~~-9~~-------|
B |-4~~-5~~-7~~-7~~-------|
F#|-2~~-----5~~-----------|

Guitar 2: (Tapping bit) x4
     T         T    T         T    T
C#|--16-0-9-12-17-0-17-0-9-12-17-0-17-0-9-12---------|
G#|--------------------------------------------------|
E |--------------------------------------------------|
B |--------------------------------------------------|
F#|--------------------------------------------------|
C#|--------------------------------------------------|
     T         T    T         T    T         T         T    T         T    T
C#|--19-0-9-12-19-0-19-0-9-12-19-0-19-0-9-12-19-0-9-12-19-0-19-0-9-12-19-0-19-0-9-12--|
G#|-----------------------------------------------------------------------------------|
E |-----------------------------------------------------------------------------------|
B |-----------------------------------------------------------------------------------|
F#|-----------------------------------------------------------------------------------|
C#|-----------------------------------------------------------------------------------|

     T         T    T         T    T         T         T    T         T    T
C#|--17-0-9-12-17-0-17-0-9-12-17-0-17-0-9-12-16-0-9-12-16-0-16-0-9-12-16-0-16-0-9-12--|
G#|-----------------------------------------------------------------------------------|
E |-----------------------------------------------------------------------------------|
B |-----------------------------------------------------------------------------------|
F#|-----------------------------------------------------------------------------------|
C#|-----------------------------------------------------------------------------------|

Calm Part:

Guitar 1: x2
C#|-5~~-4~~-----7~~-----|
G#|---------5~~---------|
E |---------------------|
B |---------------------|
F#|---------------------|
C#|---------------------|

Guitar 2: x2
C#|-17~~-12~~----12~-14~|
G#|----------14~~-------|
E |---------------------|
B |---------------------|
F#|---------------------|
C#|---------------------|

Outro:

Both Guitars:
C#|-----------------------------------------|
G#|-----------------------------------------|
E |-----------------------------------------|
B |-4~4~4~4~-4~4~4~4~-7~7~7~7~-2~2~2~2~-----|
F#|-4~4~4~4~-4~4~4~4~-5~5~5~5~-2~2~2~2~-----|
C#|-2~2~2~2~-2~2~2~2~-5~5~5~5~-0~0~0~0~-----|

Then

Guitar 1:
C#|----------------------------------------|
G#|----------------------------------------|
E |----------------------------------------|
B |-4444444444444444-77777777-22222222-----|
F#|-4444444444444444-55555555-22222222-----|
C#|-2222222222222222-55555555-00000000-----|
                              ........

Guitar 2:
C#|-5555-4444-9999-4444-5555-4444-10101010-4444-5555-4444-9999-4444-99999999-1010101010101010-|
G#|-------------------------------------------------------------------------------------------|
E |-------------------------------------------------------------------------------------------|
B |-------------------------------------------------------------------------------------------|
F#|-------------------------------------------------------------------------------------------|
C#|-------------------------------------------------------------------------------------------|

Repeat till the end of the song.

Should be pretty good although not sure about the last high bit.

comments
We did not receive enough feedback on this tab! Please rate:
print report bad tab
1 2 3 4 5
I want to post or [tab]
guest
You may want to rate the tab now too:
select rating
Please do not post tabs as comments. Select "correction" instead!