Oops, an error
Loading. Please wait.

These Colours Dont Run Tab

version 1
version 1

Whole song

Interactive

35,380 views 81 this week
4 commentsread comments
1 2 3 4 5
excellent!
x 16
add to favorites
launch autoscroll
font size
0
reset
how to read this tab
guitar tuner
Autoscroll
slow
fast
+/-
esc
set tempo
stop
Help us to improve Ultimate-Guitar.com Take our survey!
×
Contributor
Difficulty
Tuning
intermediate
B F# B E G# C#
-------------------------------------------------------------------------------
                             These Colours Don't Run - Architects
-------------------------------------------------------------------------------
Tabbed by: SHREWDLES    
E-mail: shrewdles@hotmail.co.uk

Tuning: Db    (Drop B with low string tuned down to G#)
        G#
        E
        B
        F#
        G#

 Heres a video of me playing it with this tab:

 http://www.youtube.com/watch?v=JGuV7fJdRHg

 I Haven't shown the actual amounts of stumming but you can get the jist by listening to the song!


(All tapping)

Db|---------------------------------------------------------------------------------|
G#|-h15p8p7p0-h15p8p7p0-h15p8p7p0-h15p8p7p0-h15p8p7p0-h15p8p7p0-h15p8p7p0-h15p8p7p0-|
E |---------------------------------------------------------------------------------|
B |---------------------------------------------------------------------------------|
F#|---------------------------------------------------------------------------------|
G#|---------------------------------------------------------------------------------|

Db|---------------------------------------------------------------------------------|
G#|-h12p8p7p0-h12p8p7p0-h12p8p7p0-h12p8p7p0-h14p0h7h8-h14p0h7h8-h14p0h7h8-h14p0h7h8-|
E |---------------------------------------------------------------------------------|
B |---------------------------------------------------------------------------------|
F#|---------------------------------------------------------------------------------|
G#|---------------------------------------------------------------------------------|

Db|---------------------------------------------------------------------------------|
G#|-h15p8p7p0-h15p8p7p0-h15p8p7p0-h15p8p7p0-h15p8p7p0-h15p8p7p0-h15p8p7p0-h15p8p7p0-|
E |---------------------------------------------------------------------------------|
B |---------------------------------------------------------------------------------|
F#|---------------------------------------------------------------------------------|
G#|---------------------------------------------------------------------------------|

Db|-------------------------------------------------------------------------------------|
G#|-h12p8p7p0-h12p8p7p0-h12p8p7p0-h12p8p7p0-h14p0--h10-h14p0--h10-h14p0--h10-h14p0--h10-|
E |----------------------------------------------h7---------h7---------h7---------h7----|
B |-------------------------------------------------------------------------------------|
F#|-------------------------------------------------------------------------------------|
G#|-------------------------------------------------------------------------------------|


Db|------------------------------|
G#|------------------------------|
E |------------------------------|
B |------------------------------|
F#|-999-----101010---------------|
G#|-----888--------555-1010-1414-|



Db|-----------10-10-10-10-----------------------------------------------------|
G#|-----------14-14-14-14----------------9999-12121212------------------------|
E |--------------------------------------9999-12121212------------------------|
B |--------------------------------------7777-10101010------------------------|
F#|-----------------------999-----101010-------------------9-----10-----------|
G#|--121212-0-----------------888----------------------0-0---7-0----8-0-10h14-|


Db|-----------10-10-10-10----------------------------------------|
G#|-----------14-14-14-14-----------------9999-12121212----------|
E |---------------------------------------9999-12121212-----7----|
B |---------------------------------------7777-10101010--11------|
F#|------------------------999-----101010---------------------10-|
G#|-121212-0-------------------888-------------------------------|



Db|-7--7---10--------------------10--10---10--------------------|
G#|-8--8------8-----3------------10--10------8-----3------------|
E |-9--9--------7-6---6----------12--12--------7-6---6----------|
B |-9--9----------------7-5-4~---12--12----------------7-5-4-0~-|
F#|-7--7-------------------------10--10-------------------------|
G#|-------------------------------------------------------------|


Db|--------10---------------------------10-----------------------|
G#|-----------8-----3----------------------8-----3---------------|
E |-0--0--------7-6---6----------0--0--------7-6---6-------------|
B |-0--0----------------7-5-4~---0--0----------------7--00000000-|
F#|-5--5-------------------------4--4-------------------44444444-|
G#|--------------------------------------------------------------|



Db|---------------------------------------------------------------------------------|
G#|-h15p8p7p0-h15p8p7p0-h15p8p7p0-h15p8p7p0-h15p8p7p0-h15p8p7p0-h15p8p7p0-h15p8p7p0-|
E |---------------------------------------------------------------------------------|
B |---------------------------------------------------------------------------------|
F#|---------------------------------------------------------------------------------|
G#|---------------------------------------------------------------------------------|

Db|---------------------------------------------------------------------------------|
G#|-h12p8p7p0-h12p8p7p0-h12p8p7p0-h12p8p7p0-h14p0h7h8-h14p0h7h8-h14p0h7h8-h14p0h7h8-|
E |---------------------------------------------------------------------------------|
B |---------------------------------------------------------------------------------|
F#|---------------------------------------------------------------------------------|
G#|---------------------------------------------------------------------------------|

Db|---------------------------------------------------------------------------------|
G#|-h15p8p7p0-h15p8p7p0-h15p8p7p0-h15p8p7p0-h15p8p7p0-h15p8p7p0-h15p8p7p0-h15p8p7p0-|
E |---------------------------------------------------------------------------------|
B |---------------------------------------------------------------------------------|
F#|---------------------------------------------------------------------------------|
G#|---------------------------------------------------------------------------------|

Db|-------------------------------------------------------------------------------------|
G#|-h12p8p7p0-h12p8p7p0-h12p8p7p0-h12p8p7p0-h14p0--h10-h14p0--h10-h14p0--h10-h14p0--h10-|
E |----------------------------------------------h7---------h7---------h7---------h7----|
B |-------------------------------------------------------------------------------------|
F#|-------------------------------------------------------------------------------------|
G#|-------------------------------------------------------------------------------------|



Db|-------------10101010--------------1010101010101010-------------|
G#|-------------14141414--------------1414141414141414-------------|
E |-------------------------------------------14141414-------------|
B |----------------------------------------------------------------|  x2
F#|----------------------------------------------------999----1010-|
G#|-121212-0-0------------121212-0-0-----------------------888-----|



Db|-7~-|
G#|-8~-|
E |-9~-|
B |-9~-|
F#|-7~-|
G#|----|



Db|-0-0-0-0-0----0-0-0-0-0-0-0-0----0-0-0-0-0-0-0-0----|
G#|-1515151515---1515151515151515---1515151515151515---|
E |-1818181818---1818181818181818---1818181818181818---|
B |----------------------------------------------------|  x alot!
F#|----------------------------------------------------|
G#|------------0------------------0------------------0-|



Db|-7--7---10--------------------10--10---10-------------------|
G#|-8--8------8-----3------------10--10------8-----3-----------|
E |-9--9--------7-6---6----------12--12--------7-6---6---------|
B |-9--9----------------7-5-4~---12--12----------------7-5-4---|
F#|-7--7-------------------------10--10----------------------5-|
G#|------------------------------------------------------------|



Db|--------------------------------------------|
G#|--------------------------------------------|
E |-------------------0~-----------------------|
B |-------------------0~-----------------------|
F#|-------------------5~---------------0-0-0-0-|
G#|-0~---------------------------------0-0-0-0-|
                                       . . . .


 YOU F**KING PIGS!

Db|----------------------------------------------------------------------------|
G#|------------------0~--------------------------------------------------------|
E |------------------0~-------0000-0000------------------------------0---------|
B |------------------0~-------0000-0000--------------------------------4-------|
F#|------------------5~-------5555-4444----------------------2222--2-----4-0-2-|
G#|-0~-0000000000000-----0000------------0-0000000000000-0~--0000--------------|
                                                                 ....

Db|---------------------------------------------------------------------|
G#|------------------0~----------------------------------------------0~-|
E |------------------0~-------0000-0000------------------------------0~-|
B |------------------0~-------0000-0000------------------------------0~-|
F#|----0000000000000-5~--0000-5555-4444----0000000000000----------------|
G#|-0~-0000000000000-----0000------------0-0000000000000-0~--0-0-0-0----|
       .............        ....              .............     


Db|----------------------------------------|
G#|----------------------------------------|
E |----------------------------------------|
B |----------------------------------------|
F#|-----------------------------------0000-|
G#|-0~---0-0-0-0-0-0-0-0-0-0-0-0-0~---0000-|
                                      ....

************************************

| /   slide up
| \   slide down
| .   Palm mute
| h   hammer-on
| p   pull-off
| ~   vibrato
| +   harmonic
| x   Mute note
| b   Bend
| pb  Pre-bend
| br  Bend release
| pbr Pre-bend release
| brb Bend release bend

************************************ 
comments
print report bad tab
4 comments total. Showing first comments.
+1 reply
Carl LOG 142 wrote on December 10 2012, 02:22 pm

Nice one thanks!!!

0 reply
fra29red 14 wrote on February 13 2015, 07:12 pm

this ain't drop b tuning

+1 reply
Robert2511 600 wrote on May 27 2015, 08:07 pm

It states that this is Drop B tuning, except the B is lowered to G#

I want to post or [tab]
guest
You may want to rate the tab now too:
select rating
Please do not post tabs as comments. Select "correction" instead!