Oops, an error
Loading. Please wait.

Souvenirs tab

version 1
version 1

Whole song

1,589 views 1 this week
no commentswrite comment
1 2 3 4 5
x 3
add to favorites
×
Save as Personal and add changes to this tab that will be seen only by you. Learn more ›
×
You can save this tab as Personal to edit and correct it or add notes. All changes will be seen only by you. Learn more »
launch autoscroll
font size
0
reset
how to read this tab
guitar tuner
edit
Autoscroll
slow
fast
+/-
esc
set tempo
stop
Author
                 SOUVENIRS - Architecture In Helsinki
--------------------------------------------------------------------------------------------------|

Hello! Well I am a HUGE fan of Architecture In Helsinki but sadly they aren't that
Well here is one of my favorite songs by them called "Souvenirs." I did my best on this tab
I think it's quite accurate. I only tabbed out some of the song because once you know 
you can figure out the rest of it. It is very easy to play! ENJOY!

Tuning: Standard (for both guitar I and II)

INTRO
(Guitar II):
e|------------------|
B|------------------|
G|--2-2-2-2-2-2-2-2-| x2
D|-0-0-0-0-0-0-0-0--|
A|------------------|
E|------------------|

   La la la la la la..
e|------------------|
B|------------------|
G|--2-2-2-2-2-2-2-2-| x4
D|-0-0-0-0-0-0-0-0--|
A|------------------|
E|------------------|

Guitar I:
e|--------------------|
B|--------------------|
G|-2/14-2/14-12-11\7--| x2
D|--------------------|
A|--------------------|
E|--------------------|

Guitar II (while guitar I is playing):
e|----------------------------------|
B|----------------------------------|
G|--2-2-2-2-------------------------| x2
D|-0-0-0-0--2-2-2-2-4-4-4-4---------|
A|---------0-0-0-0-2-2-2-2--5-5-5-5-|
E|-------------------------3-3-3-3--|

VERSE
Guitar I (the singing part):
e|-----------------------------|
B|-----------------------------|
G|-11-11-9-7-6-9-7-6-4-7-7-6-2-| x2
D|-----------------------------|
A|-----------------------------|
E|-----------------------------|

Guitar II (while guitar I is playing):
e|----------------------------------|
B|----------------------------------|
G|--2-2-2-2-------------------------| x2
D|-0-0-0-0--2-2-2-2-4-4-4-4---------|
A|---------0-0-0-0-2-2-2-2--5-5-5-5-|
E|-------------------------3-3-3-3--|

| /  slide up
| \  slide down
| h  hammer-on
| p  pull-off
| ~  vibrato
| +  harmonic
| x  Mute note
===============================================================================

            
            
Suggest correction
Creating personal tab
Creating personal tab
You can edit any tab online and save it as your Personal.

You can edit, replace or remove any tab part or add personal notes – all changes will be seen only by you.

Personal tabs can be accessed anytime from any device, even offline.
Learn more »
Give kudos to tab author, rate the tab!
1 2 3 4 5
comments
print report bad tab
guest
You may want to rate the tab now too:
select rating
Wanna post a correction for this tab? Suggest correction