Oops, an error
Loading. Please wait.

2013 Tab

version 1
version 1

Solo

Whole song

2,669 views 6 this week
no commentswrite comment
1 2 3 4 5
not so good
x 1
add to favorites
launch autoscroll
font size
0
reset
how to read this tab
guitar tuner
Tab Pro tools
  • play this tab
  • loop segment
  • change instrument
  • show fretboard
  • metronome
Autoscroll
slow
fast
+/-
esc
set tempo
stop
Contributor
Difficulty
intermediate
I have done a rough tab of the B-Side of 'Do I Wanna Know?', '2013'. Enjoy!

Intro/Verse
|-----------------------------------------------------|
|-----------------------------------------------------|
|-----------------------------------------------------|
|-----------------------------------------------------|
|------------5/7--------------------------------------|
|-2/5-5--5/7-----7--(x3)-2/5-5--2/5-7/8-8--7/8-2/5-5--|

Repeat this twice until the Chorus.

Chorus
|----------------------------------------------------|
|----------------------------------------------------|
|----------------------------------------------------|
|----------------------------------------------------|
|--------------------------8~--10-8-7-8--7--5--3--1--|
|-2/5-2/5-7/8-7/8-(x3)-7-8---------------------------|

Repeat the Verse and Chorus then Jamie plays this at the end of the Chorus to lead to 
the first Solo

Bridge/Solo 1
|--------------------------------------------------------------------------|
|---------------------------15/16-13----15/16-----------------------10/11b-|
|------------------------------------14-------14---------------8/12--------|
|-8b----8-8-8-8-8b-7-----------------------------12-------8/10-------------|
|--------------------5-------------------------------8/10------------------|
|--------------------------------------------------------------------------|

|---------------------14------------------------------|
|-14-15b-14-12--14/16----15-14-12--12--9--7-----------|
|--------------------------------------------9--7--9~-|
|-----------------------------------------------------|
|-----------------------------------------------------|
|-----------------------------------------------------|

Acoustic Bridge

This part is chords, the chords are:

F#           A
So baby take a walk with me,
B                C
Past flying cars and time machines,
D                E
There's nothing like you won't believe, no.

Solo 2
|----------------------------------------------------------------------|
|------------------------------------------------------------11--------|
|-------------------------------------9-------7-9-7-9-7-9-11----9-7-9--|
|-5-7-5-7-9-10-9-10-9-7-5-7-5-7-5-7-9---7-5-7--------------------------|
|----------------------------------------------------------------------|
|----------------------------------------------------------------------|

Chorus 2
|-----------------------------------------|
|-----------------------------------------|
|-----------------------------------------|
|-5/7-5/7-9/10-9/10-9h10p9h10-7-(x4)-5-7--|
|-----------------------------------------|
|-----------------------------------------|

As I said, this is a rough guide as to play this song, the solos sound fairly correct 
and the main riffs are definitely correct. I hope you enjoy playing this song!

Tabbed by LewisHallAM505/Lewis Hall

Intro/Verse
Chorus
Intro/Verse
Chorus
Bridge/Solo 1
Acoustic Bridge
Solo 2
Chorus 2
comments
We did not receive enough feedback on this tab! Please rate:
print report bad tab
1 2 3 4 5
I want to post or [tab]
guest
You may want to rate the tab now too:
select rating
Please do not post tabs as comments. Select "correction" instead!