Oops, an error
Loading. Please wait.

2013 Tab

version 3
version 3

Whole song

12,415 views 45 this week
no commentswrite comment
1 2 3 4 5
excellent!
x 9
add to favorites
launch autoscroll
font size
0
reset
how to read this tab
guitar tuner
Autoscroll
slow
fast
+/-
esc
set tempo
stop
Help us to improve Ultimate-Guitar.com Take our survey!
×
Difficulty
intermediate
Verse 1

e|-------------------------|
B|-------------------------|
G|-------------------------|  
D|-------------------------|         (x3)
A|----------------3h5p3----|
E|--3-5--5~--3-5--------5--|

e|---------------------------|
B|---------------------------|
G|---------------------------|  
D|---------------------------|        
A|---------------------------|
E|--3-5--5--3-5--7-8--8--7-5-|

Repeat

Chorus

e|---------------------------|
B|---------------------------|
G|---------------------------|  
D|---------------------------|       (x3) 
A|---------------------------|
E|--3-5--3-5--7-8--7-8--75---|

e|---------------------------|
B|---------------------------|
G|---------------------------|  
D|---------------------------|        
A|-5/7~---7h8p7-5-7-3-5-2-3--|
E|---------------------------|

Verse 2

e|---------------------------|
B|---------------------------|
G|---------------------------|  
D|---------------------------|         (x3)
A|---------------------------|
E|--3-5--5~------------------|

e|---------------------------|
B|---------------------------|
G|---------------------------|  
D|---------------------------|        
A|---------------------------|
E|--3-5--5--3-5--7-8--8--7-5-|

e|---------------------------|
B|---------------------------|
G|---------------------------|  
D|---------------------------|         
A|---------------------------|
E|--3-5--5~------------------|

e|---------------------------|
B|---------------------------|
G|---------------------------|  
D|---------------------------|         
A|----------------3h5p3------|
E|--3-5--5~--3-5--------5----|

e|---------------------------|
B|---------------------------|
G|---------------------------|  
D|---------------------------|         
A|---------------------------|
E|--3-5--5~------------------|

e|---------------------------|
B|---------------------------|
G|---------------------------|  
D|---------------------------|        
A|---------------------------|
E|--3-5--5--3-5--7-8--8--7-5-|

Chorus 

Same again with  this at the end.

e|---------------------------|
B|---------------------------|
G|--8b9-9-9-9-99999b8--------|  
D|---------------------------|         
A|---------------------------|
E|---------------------------|

Solo

e|--------------------------------------------------------------|
B|--15b16--13-----15b16--13-------------------------------------|
G|------------14-------------14---------------------12h14-14/17-|  
D|-------------------------------12~--------10h12/14------------|         
A|-------------------------------------10h12--------------------|
E|--------------------------------------------------------------|

e|-----------------------------15------------------------------------|
B|--15b16-1616b15-13-----15b16----16b15-13---------------------------|
G|-------------------14--------------------14-14--12-----------------|  
D|----------------------------------------------------14--12--10--12~|         
A|-------------------------------------------------------------------|
E|-------------------------------------------------------------------|

Bridge

Chords: Dm, G, C, Am, Dm, G. 

Dm             G             C
So baby take a walk with me

                     Am              Dm
Past flying cars and time machines

                       G
There's magic like you won't believe, no


e|---------------------------|
B|---------------------------|
G|---------------------------|  
D|-5-7--5-7--9-10--9-10--97--|     (x2)       
A|---------------------------|
E|---------------------------|

e|------------------------------------------------------------------------|
B|----------------------------------8-10--8-10--13-15-15b16b15-131513-----|
G|------------------------------------------------------------------------|  
D|-5-7--5-7--10-12-12b13b12-101210----------------------------------------|            
A|------------------------------------------------------------------------|
E|------------------------------------------------------------------------|

Finish with the chorus.
Suggest correction
comments
print report bad tab
guest
You may want to rate the tab now too:
select rating
Please do not post tabs as comments. Select "correction" instead!