Oops, an error
Loading. Please wait.

505 Bass

version 1
version 1

Whole song

Interactive

33,508 views 63 this week
5 commentsread comments
1 2 3 4 5
x 9
add to favorites
launch autoscroll
font size
0
reset
guitar tuner
backing track
0:00
0:00
×
Best way to learn
"505"
Autoscroll
slow
fast
+/-
esc
set tempo
stop
Author
Difficulty
novice
Tabbed By : Clark J
e-mail: clark.jacobson@charter.net
Tuning: EADG

0:41-1:35, 2:03-2:30
G|---------------------------------------------------------------------------|
D|---------------------------------------------------------------------------|
A|5~~~~~~~~~~~~~~~~~~~~~-----------------------------------------------------|
E|----------------------0~~~~~~~~~~~~~~~~~~----------------------------------|

1:35-2:03
G|---------------------------------------------------------------------------|
D|----5-5-7-7-5-5------------------------------------------------------------|
A|5-5-------------5~~~~~-7-7--7-7-7--7-7/10-10-10-10-10-10-10----------------|
E|---------------------------------------------------------------------------|

2:30-3:53
G|---------------------------------------------------------------------------|
D|----------------3----------------------------------------------------------|
A|55-3h55-3h55-3h5--5-3-77-5h77-5h7/10-10-10-10-10-10------------------------|
E|---------------------------------------------------------------------------|

End with
G|---------------------------------------------------------------------------|
D|---------------------------------------------------------------------------|
A|5/x------------------------------------------------------------------------|
E|---------------------------------------------------------------------------|

************************************

| ~  Vibrato
| /  Slide up
| h  Hammer-on

************************************
Suggest correction
comments
print report bad tab
5 comments total. Showing first comments.
+1 reply
Tug 10 Apr 30, 2007 12:34 PM

Sounds good, but I think the 2nd part goes:

D----33-77-33---|
A-55----------5-|

So you play F's instead of G's

0 reply
clark j 114 Apr 30, 2007 02:36 PM

oh yeah, you're right. thanks.

0 reply
keneticshark24 135 May 24, 2007 09:41 AM

Tab's great, gives a good guide on how to play this simple (yet sweet) song. One of my favorites.


Thank you.

guest
You may want to rate the tab now too:
select rating
Wanna post a correction for this tab? Suggest correction