Oops, an error
Loading. Please wait.

505 Bass Tab

version 2
version 2

Whole song

Interactive

17,326 views 66 this week
no commentswrite comment
1 2 3 4 5
excellent!
x 23
add to favorites
launch autoscroll
font size
0
reset
guitar tuner
Autoscroll
slow
fast
+/-
esc
set tempo
stop
Help us to improve Ultimate-Guitar.com Take our survey!
×
Tuning: EADG

0:41-1:35, 2:03-2:30
G|---------------------------------------------------------------------------|
D|---------------------------------------------------------------------------|
A|5~~~~~~~~~~~~~~~~~~~~~-----------------------------------------------------|
E|----------------------0~~~~~~~~~~~~~~~~~~----------------------------------|

1:35-2:03
G|---------------------------------------------------------------------------|
D|--------7-7----------------------------------------------------------------|
A|5-5-8-8-----8-8-5~~~~~-7~~~~~/10-10-10-10----------------------------------|
E|---------------------------------------------------------------------------|

2:30-3:53
G|---------------------------------------------------------------------------|
D|--------------3-----------------5-7----------------------------------------|
A|55-355-355-35---5-77-577-577-57--------------------------------------------|
E|---------------------------------------------------------------------------|

End on
G|---------------------------------------------------------------------------|
D|---------------------------------------------------------------------------|
A|5/x------------------------------------------------------------------------|
E|---------------------------------------------------------------------------|
comments
print report bad tab
I want to post or [tab]
guest
You may want to rate the tab now too:
select rating
Please do not post tabs as comments. Select "correction" instead!