Oops, an error
Loading. Please wait.
We have an official 505 tab made by UG professional guitarists. Check out the tab »
×

505 tab

version 2
version 2

Whole song

  • Mine includes more parts of the song that the othe... Show more

Interactive

35,318 views 21 this week
6 commentsread comments
1 2 3 4 5
x 8
add to favorites
×
Save as Personal and add changes to this tab that will be seen only by you. Learn more ›
×
You can save this tab as Personal to edit and correct it or add notes. All changes will be seen only by you. Learn more »
launch autoscroll
font size
0
reset
how to read this tab
guitar tuner
backing track
0:00
0:00
edit
Autoscroll
slow
fast
+/-
esc
set tempo
stop
Author
[Chords]

    Dm*  Em* (Dm   Em)   (First Guitar Chords) (Second Guitar Chords)
e|---5----7---10---12--|
B|---6----8---10---12--|
G|---7----9---10---12--|
D|---7----9---12---14--|
A|---5----7------------|
E|---x----x------------|

I'm going back to 505 if it's a 7 hours flight or a 45 minute drive
In my imagination you're waiting lying on your side with your hands between your thighs

Each chord is one strum

Dm Em

Dm                           Em
Stop and wait a sec when you look at me like that
           Dm                       Em
My darling what did you expect? I probably still adore you
          Dm                         Em
With your hands around my neck Or I did last time I checked

Dm Em

    Dm           Dsus4        Em                Esus4                  Dm
I'm not shy of a spark The knife twists at the thought that I should fall
             Dsus4
short of the mark
   Em            Esus4              Dm          Dsus4
Frightened by the bite no it's no harsher than the bark
   Em          Esus4            Dm             Dsus4     Em
A middle of adventure, such a perfect place to start

e|-12-10-8-7-5--|  (riff 1)
B|-----------6--|
G|-----------7--|
D|--------------|         (Repeat the riff at flight, imagination & thighs)
A|--------------|
E|--------------|

           Dm                   Em
I'm going back to 505 If it's a 7 hour flight
     Dm                 Em                             Dm           Esus4
Or a 45 minute drive In my imagination you're waiting lying on your side
           Em                  Dm      Em
With your hands between your thighs

e|---12-10-8-7--(Drums Stop)--------|
B|----------------------------------|
G|----------------------------------|
D|----------------------------------|
A|----------------------------------|
E|----------------------------------|

e|------------------------------------------------------------------------|
B|------------------------------------------------------------------------|
G|------------------------------------------------------------------------|
D|--14--12--10--9--7--9--10--10-10-10-10--9-9-9-9-9/14--14-14-14-14-------|
A|------------------------------------------------------------------------|

e|----------------------------------------------------------10---|
B|----------------------------------------------------------10---|
G|----------------------------------------------------------12---|
D|--14--12--10--9--7--9--10--10101010--9-9999/14--14141414--12---|
A|---------------------------------------------------------------|
E|---------------------------------------------------------------|

(Start strumming the chords now)
                Dm & Dsus4*                *Continue playing these chords*
But I crumble completely when you cry      *along with rythym guitars chords*
    Em & Esus4*                         Dm
It seems like once again you've had to greet me with goobye
     Em                         Dm
I'm always just about to go and spoil the surprise
         Em                            Dm   Em
Take my hands off of your eyes too soon
           Dm                   Em
I'm going back to 505 If it's a 7 hour flight
     Dm                 Em                             Dm
Or a 45 minute drive In my imagination you're waiting lying on your side
           Em                              Dm     Em
With your hands between your thighs And a smile

e|-------------------------------------------------------------------------|
B|----17-15-13-12-10-12-13-13-13-13-13-12-12-12-12-12-12/17-17-17-17-17----|
G|-------------------------------------------------------------------------| (x4)
D|-------------------------------------------------------------------------|
A|-------------------------------------------------------------------------|
E|-------------------------------------------------------------------------|

e|----------------------------------------------------------------------|
B|----------------------------------------------------------------------|
G|----------------------------------------------------------------------|
D|--14--12--10--9--7--9--10--10-10-10-10--9-9-9-9-9/14--14-14-14-14-----|
A|----------------------------------------------------------------------|
E|----------------------------------------------------------------------|

e|--------------------------------------------------10------------|
B|--------------------------------------------------10------------|
G|--------------------------------------------------12------------|
D|--14--12--10--9--7--9--10--10-10-10-10--9-9-9-9-9/14-12---------|
A|----------------------------------------------------------------|
E|----------------------------------------------------------------|


************************************

| /  Slide up

************************************

            
            
Suggest correction
Creating personal tab
Creating personal tab
You can edit any tab online and save it as your Personal.

You can edit, replace or remove any tab part or add personal notes – all changes will be seen only by you.

Personal tabs can be accessed anytime from any device, even offline.
Learn more »
comments
print report bad tab
6 comments total. Showing first comments.
0 reply
mellon_c 50 May 13, 2007 09:07 AM

Good tab, however i think the 2nd chords could also be

Dm* Em*(Dsus4 Esus4) *First Guitar Chords (Second Guitar Chords)
e|---5----7------------|
B|---6----8---15---17--|
G|---7----9---14---16--|
D|---7----9---15---17--|
A|---5----7------------|
E|---X----X------------|

0 reply
mellon_c 50 May 13, 2007 09:09 AM

Actually

Dm* Em*(Dsus4 Esus4) *First Guitar Chords (Second Guitar Chords)
e|---5----7---10---12--|
B|---6----8---10---12--|
G|---7----9---10---12--|
D|---7----9---12---14--|
A|---5----7------------|
E|---X----X------------|

-1 reply
keneticshark24 135 May 24, 2007 09:42 AM

Great tab.

10
10
12
12 still doesn't right to me, but oh well. Probably just me, right? >_>;

Thanks.

guest
You may want to rate the tab now too:
select rating
Wanna post a correction for this tab? Suggest correction