Oops, an error
Loading. Please wait.

505 Bass Tab

version 3
version 3

Whole song

Interactive

3,742 views 12 this week
no commentswrite comment
1 2 3 4 5
excellent!
x 3
add to favorites
launch autoscroll
font size
0
reset
guitar tuner
Tab Pro tools
  • play this tab
  • loop segment
  • change instrument
  • show fretboard
  • metronome
×
Best way to learn
"505"
Autoscroll
slow
fast
+/-
esc
set tempo
stop
Contributor
Artist: Arctic Monkeys

Album: Favourite Worst Nightmare



All tabs by Pedro Zappa
-----------------------------------------------------------------------------
-----------------------------------------------------------------------------


12. 505


(wait)

G||--------------------|--------------------|
D||--------------------|--------------------|
A||-5------------------|--------------------|
E||--------------------|--------------------|
    i    i    i    i     i    i    i    i
G||--------------------|--------------------||  x8
D||--------------------|--------------------||
A||--------------------|--------------------||
E||-0------------------|--------------------||
    i    i    i    i     i    i    i    i

G||--------------------|--------------------|
D||-----------7-7------|--------------------|
A||-5-5--8-8-------8-8-|-5------------------|
E||--------------------|--------------------|
    i    i    i    i     i    i    i    i
G||--------------------|--------------------||  x4
D||--------------------|-5------------------||
A||-7------------------|--------------------||
E||--------------------|--------------------||
    i    i    i    i     i    i    i    i

G||--------------------|--------------------|
D||--------------------|--------------------|
A||-5------------------|--------------------|
E||--------------------|--------------------|
    i    i    i    i     i    i    i    i
G||--------------------|--------------------||  x4
D||--------------------|--------------------||
A||--------------------|--------------------||
E||-0------------------|--------------------||
    i    i    i    i     i    i    i    i

G||--------------------|--------------------|
D||--------------------|-------------3------|
A||-5-5----3--5-5----3-|-5-5----3--5----5-3-|
E||--------------------|--------------------|
    i    i    i    i     i    i    i    i
G||--------------------|--------------------||  x9
D||--------------------|-------------5--7-7-||
A||-7-7----5--7-7----5-|-7-7----5--7--------||
E||--------------------|--------------------||
    i    i    i    i     i    i    i    i
G||--------------------|--------------------|
D||--------------------|-------------3------|
A||-5-5----3--5-5----3-|-5-5----3--5----5-3-|
E||--------------------|--------------------|
    i    i    i    i     i    i    i    i
G||--------------------|--------------------||
D||--------------------|-------------5----7-||
A||-7-7----5--7-7----5-|-7-7----5--7----7---||
E||--------------------|--------------------||
    i    i    i    i     i    i    i    i
G||--------------------|--------------------|
D||--------------------|-------------3------|
A||-5-5----3--5-5----3-|-5-5----3--5----5-3-|
E||--------------------|--------------------|
    i    i    i    i     i    i    i    i
G||--------------------|--------------------||  x2
D||--------------------|-------------5--7-7-||
A||-7-7----5--7-7----5-|-7-7----5--7--------||
E||--------------------|--------------------||
    i    i    i    i     i    i    i    i
G||--------------------||
D||--------------------||
A||-5------------------||
E||--------------------||
    i    i    i    i  


Tab by Pedro Zappa
-----------------------------------------------------------------------------
-----------------------------------------------------------------------------
comments
We did not receive enough feedback on this tab! Please rate:
print report bad tab
1 2 3 4 5
I want to post or [tab]
guest
You may want to rate the tab now too:
select rating
Please do not post tabs as comments. Select "correction" instead!