Oops, an error
Loading. Please wait.
We have an official 505 tab made by UG professional guitarists. Check out the tab »
×

505 tab

version 3
version 3

Whole song

  • Mine includes more parts of the song that the othe... Show more
3,515 views 48 this week
2 commentsread comments
1 2 3 4 5
x 8
add to favorites
×
Save as Personal and add changes to this tab that will be seen only by you. Learn more ›
×
You can save this tab as Personal to edit and correct it or add notes. All changes will be seen only by you. Learn more »
launch autoscroll
font size
0
reset
how to read this tab
guitar tuner
backing track
0:00
0:00
edit
Autoscroll
slow
fast
+/-
esc
set tempo
stop
Author
About this tab version
Mine includes more parts of the song that the others are missing, and mine is also more correct. Was this info helpful? Yes No
-------------------------------------------------------------------------------
                             505 - Arctic Monkeys
-------------------------------------------------------------------------------
Tabbed by: danidanidanii

i was surprised that there were no good tabs of Miles (Jamies?) part, when this song is
like 8 years old, so i took matters into my own hands. tabbed by ear.

feel free to let me know if you think i should change something, and please rate if you
like it so other people can find it too :)
 


Tuning: EADGBe/standard

Guitar 1:

just switching between these two chords, a single strum each. at "i crumble completely 
when you cry..." strum more rapidly and basically...listen for pattern. ya. 

  Dm     Em
e|-5-|  |-7-|
B|-6-|  |-8-|
G|-7-|  |-9-|
D|-7-|  |-9-|
A|-5-|  |-7-|
E|-x-|  |-x-|


Guitar 2 (aka Miles Kane):

doesn't play till about a minute in. 
i'm sure you can figure out when to play what, as its all in order, but i'll put the 
words just in case. 

i think he uses some light whammy for these parts.
"not shy of a spark"       "at the thought that"
e|------------------5---------------------------12---------------------------|
B|------------------6---------------------------12---------------------------|
G|------------------7---------------------------12---------------------------|
D|---------------------------------------------------------------------------|
A|---------------------------------------------------------------------------|
E|---------------------------------------------------------------------------|

"fall short of the mark"    "frightened by the bite"
e|-----------------10---------------------------12---------------------------|
B|-----------------10---------------------------12---------------------------|
G|-----------------10---------------------------12---------------------------|
D|---------------------------------------------------------------------------|
A|---------------------------------------------------------------------------|
E|---------------------------------------------------------------------------|

"harsher than the bark"    "middle of adventure"
e|------------------5--8-------------------------7---------------------------|
B|------------------6----------------------------8---------------------------|
G|------------------7----------------------------9---------------------------|
D|---------------------------------------------------------------------------|
A|---------------------------------------------------------------------------|
E|---------------------------------------------------------------------------|

"place to start"
e|-----------------10--------------------------------------------------------|
B|-----------------10--------------------------------------------------------|
G|-----------------10--------------------------------------------------------|
D|---------------------------------------------------------------------------|
A|---------------------------------------------------------------------------|
E|---------------------------------------------------------------------------|

e|--------12--10-----------------------------------|
B|----------------13--12--10~----------------------|
G|-------------------------------------------------| x2  "im going back
D|-------------------------------------------------|             to 505..."
A|-------------------------------------------------|
E|-------------------------------------------------|

"...imagination your waiting..."  
e|------12--10---------------8-------7---------------------------------------|
B|--------------13--12--10---6-------8---------------------------------------|
G|---------------------------7-------9---------------------------------------|
D|---------------------------------------------------------------------------|
A|---------------------------------------------------------------------------|
E|---------------------------------------------------------------------------|

"between your thighs"
e|--------12--10-----------------------------------|
B|----------------13--12--10~----------------------|
G|-------------------------------------------------| 
D|-------------------------------------------------|
A|-------------------------------------------------|
E|-------------------------------------------------|

e|--------12--10-------------------------------------------------------------|
B|----------------13--12-----------------------------------------------------|
G|---------------------------------------------------------------------------|
D|---------------------------------------------------------------------------|
A|---------------------------------------------------------------------------|
E|---------------------------------------------------------------------------|

e|---------------------------------------------------------------------------|
B|---------------------------------------------------------------------------|
G|---------------------------------------------------------------------------| x2
D|------------------14--12--10--9--7--9--10-10||| 10/9--9|||-9/14-14||-------|
A|---------------------------------------------------------------------------|
E|---------------------------------------------------------------------------|

e|--------12-----------------------------------------------------------------|
B|--------12-----------------------------------------------------------------|
G|--------12-----------------------------------------------------------------|
D|--------14-----------------------------------------------------------------|
A|---------------------------------------------------------------------------|
E|---------------------------------------------------------------------------|

"but i crumble completely..."   
                               repeat this until the end of "45 minute drive"
e|-----------10-------10-------10-----------------12-------12-------12-------|
B|--------10-------10-------10----10-----------12-------12-------12----12----|
G|-----10-------10-------10-----------------12-------12-------12-------------|
D|--12-----------------------------------14----------------------------------|
A|---------------------------------------------------------------------------|
E|---------------------------------------------------------------------------|

at some point during "in my imagination"                          (repeat)
e|----------10-------10---10---12-------12---12------------------------------|
B|----------10-------10---10---12-------12---12------------------------------|
G|----------10-------10---10---12-------12---12------------------------------|
D|----------12-------12---12---14-------14---14------------------------------|
A|---------------------------------------------------------------------------|
E|---------------------------------------------------------------------------|

e|-------12--10--------------------------------------------------------------|
B|---------------13--12--10--12--13--13||--13/12--12||--12/17--17||----------|
G|---------------------------------------------------------------------------| x4
D|---------------------------------------------------------------------------|
A|---------------------------------------------------------------------------|
E|---------------------------------------------------------------------------|

e|---------------------------------------------------------------------------|
B|---------------------------------------------------------------------------|
G|---------------------------------------------------------------------------| x2
D|--------------14--12--10--9--7--9--10-10||| 10/9--9|||-9/14-14||-----------|
A|---------------------------------------------------------------------------|
E|---------------------------------------------------------------------------|

e|--------12-----------------------------------------------------------------|
B|--------12-----------------------------------------------------------------|
G|--------12-----------------------------------------------------------------|
D|--------14-----------------------------------------------------------------|
A|---------------------------------------------------------------------------|
E|---------------------------------------------------------------------------|


have fun, dont get hurt and let me know if any other arctic monkeys songs need my help.

************************************

| /   slide
| ~   vibrato
| |   repeat note before

************************************
Suggest correction
Creating personal tab
Creating personal tab
You can edit any tab online and save it as your Personal.

You can edit, replace or remove any tab part or add personal notes – all changes will be seen only by you.

Personal tabs can be accessed anytime from any device, even offline.
Learn more »
comments
print report bad tab
2 comments total.
0 reply
luisgabrielrs 10 Nov 04, 2015 02:55 PM

You got all perfect, It was missing a good 505 tab here

guest
You may want to rate the tab now too:
select rating
Wanna post a correction for this tab? Suggest correction