Oops, an error
Loading. Please wait.

A Certain Romance Bass Tab

version 1
version 1

Interactive

22,183 views 9 this week
no commentswrite comment
1 2 3 4 5
x 3
add to favorites
launch autoscroll
font size
0
reset
guitar tuner
Autoscroll
slow
fast
+/-
esc
set tempo
stop
Help us to improve Ultimate-Guitar.com Take our survey!
×
Author
Well This tab it´s not different from the other tabs, until the ending part, i made it 
those who find to hard to switch chords beetween the fast parts at the end, so enjoy.

G|------------------|
D|--0-2-------------| x 16
A|2-----------------|
E|------------------|

G|-----------------------------------|
D|-----------------------------------|x 4
A|-2-2-2-222222-22-2-2-2/14 14 14 14/|
E|-----------------------------------|


G|---------------------------------------------|
D|---------------------------------------------|x 3
A|2-22-22-2-2-2-2-2-2-2/7-77-77-7-7-7-7-7-7-7/2|
E|---------------------------------------------|(I Know the song doesn´t have this many 
but actually sounds good, when you time it right)

G|------------------| x4
D|---------8--------|
A|---6-6-9---8------|
E|-7----------------|


G|-------9------------|
D|---6-6---9----------| x 4
A|-7------------------|
E|--------------------|


G|------------------------|
D|---6-6-6-5-5-5-5--------|
A|-7----------------------|
E|------------------------|

repeat this 3 parts until it changes then play this:

G|---------------------------------------------------|
D|---------------------------------------------------|
A|11(x8)/9(x8)/7(x16)--------------------------4-44-4|
E|-------------------7-77-7-7-6-4-44-44-------2222222|


The song will go on like this until the final part, and it goes like this (remember that 
it´s an alternate way to play it)(also i don´t know how many times to play each note, 
hear the song carefully, then try to time it)

Playing really fast
G|-------------------------------------|
D|-------------------------------------| x 2
A|222222222222/14 14 14 14 14/9999/7777|
E|-------------------------------------|


G|----------------------------------------------------------------|
D|222222222222/14 14 14 14 14/9999/7777/222222222222/5555555555555|
A|----------------------------------------------------------------|
E|----------------------------------------------------------------|


play this 2 parts until it changes, then play

G|---------------------------------------------|
D|---------------------------------------------|x 3
A|2-22-22-2-2-2-2-2-2-2/7-77-77-7-7-7-7-7-7-7/2|
E|---------------------------------------------|

Well this is it, hope you like it, if you don´t please comment, and tell me the reasson 
try to explain it, or just update the tab, enjoy
Suggest correction
Give kudos to tab author, rate the tab!
1 2 3 4 5
comments
print report bad tab
guest
You may want to rate the tab now too:
select rating
Wanna post a correction for this tab? Suggest correction