Oops, an error
Loading. Please wait.

A Certain Romance Tab

version 1
version 1

Whole song

Interactive

408,244 views 804 this week
41 commentsread comments
1 2 3 4 5
excellent!
x 126
add to favorites
launch autoscroll
font size
0
reset
how to read this tab
guitar tuner
Autoscroll
slow
fast
+/-
esc
set tempo
stop
Help us to improve Ultimate-Guitar.com Take our survey!
×
Author
-------------------------------------------------------------------------------
                             A Certain Romance - Arctic Monkeys
-------------------------------------------------------------------------------

Tabbed By : Steven Gladman
E-Mail    : stevie.gladman@ntlworld.com


[INTRO]

e|---------|
B|---------|
G|---7--9--|
D|-9-------|
A|---------|  X 16
e|---------|

e|----------|
B|----------|
G|----------|
D|--9-9-9---|
A|--9-9-9---| X 8 (Scratch strings inbetween)
e|--7-7-7---|
(Scratch strings inbetween)             

[Part 1]

e|----------------------14-14-14---------------16-16-16---------------18-18-18-18-18-15-12--|
B|----16-16---16-16-16-----------16---16-16-16----------16---16-16-16-----------------------|
G|------------------------------------------------------------------------------------------|
D|------------------------------------------------------------------------------------------|
A|------------------------------------------------------------------------------------------|
e|------------------------------------------------------------------------------------------|

e|--7--7-7-7-9-7---9-7---7--7-7-7---------------------------------------------------------|
B|---------------9-----9----------8-8-8-8-------------------------------------------------|
G|----------------------------------------------------------------------------------------|
D|----------------------------------------------------------------------------------------|
A|----------------------------------------------------------------------------------------|
e|----------------------------------------------------------------------------------------|

Repeat

                        
[VERSE] (Bass Starts at the same Time Here)

e|---11--------|
B|---12--------|
G|---11--------|
D|-------------|
A|-------------| X 16
e|-------------|

e|---7---------|
B|---9---------|
G|---9---------|
D|-------------|
A|-------------| X 16
e|-------------|

        "You Know..."
e|-------------------------------------------------------------|
B|--9--9-7------9-7-----9-7-----9-7----------------------------|
G|---------8--6-----8-------8-------8-------6-8------5-6-------|
D|--------------------9-------9----------9-------6-9------4----|
A|-------------------------------------------------------------|  
e|-------------------------------------------------------------|

Repeat them Play the above over the following chords

Ab Gb E  X2


[Bass Solo]

 - Here Bass Plays 4 times, for the 5th time play;

e|---7-----7-7-7-7-7------------7------|
B|---9---------------9-9--------8------|
G|---9-------------------9------9------|
D|-------------------------------------|
A|-------------------------------------| 
e|-------------------------------------|

Then

Play Part i 1 time with the following chords in the background, then 1 time without
and then the third time with:

e|---11--------|
B|---12--------|
G|---11--------|
D|-------------|
A|-------------| X 16
e|-------------|

e|---7---------|
B|---9---------|
G|---9---------|
D|-------------|
A|-------------| X 16
e|-------------|

After this, a solo Background chords B Ab and G

e|----------------------------------------------------|
B|----------------------------------------------------|
G|----------------------------------8-----8--6--4-----|
D|---9-8-9--9/11-9-8-9---8-9-9/11-9---4-----------6--5|
A|----------------------------------------------------|  X2
e|----------------------------------------------------|

e|---------------------------------------|
B|--9-9-7-7--------9-9-9-7-7-------------|
G|----------8-8-8-------------8-8-8-8----|
D|---------------------------------------|
A|---------------------------------------| X 7
e|---------------------------------------|
 
On the Eighth one however

e|---------------------------------------|
B|--9-9-7-7-------------7-7--------------|
G|----------8-8-6-6-8-8------8-8-6-6-4---|
D|---------------------------------------|
A|---------------------------------------|
e|---------------------------------------|


[Part 1]
with a prolonged finish
e|----------------------14-14-14---------------16-16-16---------------18-18-18-18-18-15-12--|
B|----16-16---16-16-16-----------16---16-16-16----------16---16-16-16-----------------------|
G|------------------------------------------------------------------------------------------|
D|------------------------------------------------------------------------------------------|
A|------------------------------------------------------------------------------------------|
e|------------------------------------------------------------------------------------------|

e|--7--7-7-7-9-7---9-7---7--7-7-7---------------------------------------------------------|
B|---------------9-----9----------8-8-8-8-------------------------------------------------|
G|----------------------------------------------------------------------------------------|
D|----------------------------------------------------------------------------------------|
A|----------------------------------------------------------------------------------------|
e|----------------------------------------------------------------------------------------|


***************************

| /  slide up
| \  slide down
| h  hammer-on
| p  pull-off
| ~  vibrato
| +  harmonic
| x  Mute note

***************************
Suggest correction
comments
print report bad tab
41 comments total. Showing first comments.
+7 reply
MardyBum 660 wrote on March 28 2005, 12:00 am

I noticed a mistkae when after I submitted this. The first one is at the bit where it says "You Know". It should actually have one of the nines on a line below as illustrated

"You Know..."
e |-------------------------------------------------------------|
B |--9--9-7------9-7-----9-7-----9-7----------------------------|
G |---------8--6-----8-------8-------8-------6-8------5-6-------|
D |--------------------9-------9----------9-------6--9-----4----|
A |-------------------------------------------------------------|
E |-------------------------------------------------------------|


The second mistake is the bit just after the solo - it should be a six instead of a 4 as illustrated below.


e |----------------------------------------------------|
B |----------------------------------------------------|
G |----------------------------------8-----8--6--4-----|
D |---9-8-9--9/11-9-8-9---8-9-9/11-9---6-----------6--5|
A |----------------------------------------------------| X2
E |----------------------------------------------------|


-Gladman

0 reply
robbie 335 wrote on November 27 2005, 02:25 pm

Fantastic tab!! Nothing wrong that I could hear, well done!!

0 reply
sammsufc 10 wrote on March 5 2006, 02:30 pm

brill tab thnx

guest
You may want to rate the tab now too:
select rating
Wanna post a correction for this tab? Suggest correction