Oops, an error
Loading. Please wait.

A Certain Romance Bass Tab

version 3
version 3

Interactive

3,786 views 3 this week
2 commentsread comments
1 2 3 4 5
accurate
x 6
add to favorites
launch autoscroll
font size
0
reset
guitar tuner
Autoscroll
slow
fast
+/-
esc
set tempo
stop
Help us to improve Ultimate-Guitar.com Take our survey!
×
Author
Difficulty
intermediate
Intro

G|-------|
D|---0-2-|
A|-2-----|
E|-------| x16

G|---------|
D|---------|
A|-2-2-2---|
E|---------| x8

G|-------------------------|
D|-------------------------|
A|-2~--2~--2~--2-2-2-2-2-2-|
E|-------------------------| x4

Verse/ Bass Solo

G|----------3----|
D|---1--1-4---4--|
A|-2-------------|
E|---------------| x4

G|--------9------|
D|---9--9---9--9-|
A|-7-------------|
E|---------------| x3

G|---------------|
D|---------------|
A|-6-6-6-6-5-5-5-|
E|---------------|

Chorus

G|-----------------------------------------------------------------|
D|-----------------------------------------------------------------|
A|-----------------------------------------------------------------|
E|-4-4-4-4-4-4-4-4-2-2-2-2-2-2-2-2-0-0-0-0-0-0-0-0-0-0-0-0-0-0-0-0-|

G|-----------------------------------------------------------------|
D|-----------------------------------------------------------------|
A|-2-2-2-2-2-2-2-2-----------------4-4-4-4-4-4-4-4-----------------|
E|-----------------4-4-4-4-4-4-4-4-----------------2-2-2-2-2-2-2-2-|

Chorus Variation

G|-----------------------------------------------------------------|
D|-----------------------------------------------------------------|
A|-----------------------------------------------------------------|
E|-4-4-4-4---------2-2-2-2-2-2-2-2-0-0-0-0---------0-0-0-0-0-0-0-0-|

G|-----------------------------------------------------------------|
D|-----------------------------------------------------------------|
A|-2-2-2-2-2-2-2-2-----------------4-4-4-4-4-4-4-4-----------------|
E|-----------------4-4-4-4-4-4-4-4-----------------2-2-2-2-2-2-2-2-|

Ending

G|-------------------------|
D|-------------------------|
A|-2~--2~--2~--2-2-2-2-2-2-|
E|-------------------------| x4

End On

A|-2~-|
Suggest correction
comments
print report bad tab
2 comments total.
0 reply
San Miguel 106 wrote on May 1 2007, 08:23 am

nice attempt, but youve got alot of the song wrong. most of the verse and chorus are wrong (the first part of the chorus isnt wrong, its just played higher up the fret board). also, the bass doesnt play the first part of the intro, and when it does its plays E-7 and A-7.

0 reply
Piratemonkey19 52 wrote on September 4 2007, 02:23 pm

No. Its just bad. If there was a zero for voting, id vote that on this tab.

guest
You may want to rate the tab now too:
select rating
Wanna post a correction for this tab? Suggest correction