Oops, an error
Loading. Please wait.

A Certain Romance Bass Tab

version 4
version 4

Interactive

39,478 views 81 this week
2 commentsread comments
1 2 3 4 5
excellent!
x 40
add to favorites
launch autoscroll
font size
0
reset
guitar tuner
Autoscroll
slow
fast
+/-
esc
set tempo
stop
Help us to improve Ultimate-Guitar.com Take our survey!
×
Author
Difficulty
novice
A Certain Romance Bass Tab by Arctic Monkeys
Tabbed by TaoK


[Intro]
G|----------|----------|----------|----------|
D|--DRUMS---|--DRUMS---|--DRUMS---|--DRUMS---|
A|----------|----------|----------|----------|
E|----------|----------|----------|----------|

G|-----------------|-----------------|-----------------|-----------------|
D|-----------------|-----------------|-----------------|-----------------|
A|-----------------|-----------------|-----------------|-----------------|
E|-7-7-7-7-7-7-7-7-|-7-7-7-7-7-7-7-7-|-7-7-7-7-7-7-7-7-|-7-7-7-7-7-7-7-7-|

G|-----------------|-----------------|-----------------|-----------------|
D|-----------------|-----------------|-----------------|-----------------|
A|-----------------|-----------------|-----------------|-----------------|
E|-7-7-7-7-7-7-7-7-|-7-7-7-7-7-7-7-7-|-7-7-7-7-7-7-7-7-|-7-7-7-7-7-7-7-7-|

G|-----------------|-----------------|-----------------|-----------------|
D|-----------------|-----------------|-----------------|-----------------|
A|-----------------|-----------------|-----------------|-----------------|
E|-7--7--7\2/------|-7--7--7--0/-----|-7--7--7\2/------|-7--7--7--2/-----|

G|-----------------|-----------------|-----------------|-----------------|
D|-----------------|-----------------|-----------------|-----------------|
A|-----------------|-----------------|-----------------|-----------------|
E|-7--7--7---------|-7--7--7\2/------|-7--7--7\2/------|-7--7--7---------|

G|-----------------|-----------------|-----------------|-----------------|
D|-----------------|-----------------|-----------------|-----------------|
A|-----------------|-----------------|-----------------|-----------------|
E|-7---------------|-----------------|-----------------|-----------------|

G|-----------------|-----------------|-----------------|-----------------|
D|-----------------|-----------------|-----------------|-----------------|
A|-7---------------|-----------------|-----------------|-----------------|
E|-----------------|-----------------|-----------------|-----------------|

G|-----------------|-----------------|-----------------|-----------------|
D|-----------------|-----------------|-----------------|-----------------|
A|-----------------|-----------------|-----------------|-----------------|
E|-7---------------|-----------------|-----------------|---7-7-7-7-7-7-7-|

G|-----------------|-----------------|-----------------|-----------------|
D|-----------------|-----------------|-----------------|-----------------|
A|-7---------------|-----------------|-----------------|-----------7-7-7-|
E|-----------------|-----------------|-----------------|-----------------|


[Verse 1]
G|---------------|---------------|---------------|---------------|
D|-----------8---|-----------8---|-----------8---|-----------8---|
A|---6-6-6/9---9-|---6-6-6/9---9-|---6-6-6/9---9-|---6-6-6/9---9-|
E|-7-------------|-7-------------|-7-------------|-7-------------|

G|--------8------|--------8------|--------8------|----------------|
D|---6--6---9--9-|---6--6---9--9-|---6--6---9--9-|---5--5-4-4-4-4-|
A|-7-------------|-7-------------|-7-------------|-7--------------|
E|---------------|---------------|---------------|----------------|

G|---------------|---------------|---------------|---------------|
D|-----------8---|-----------8---|-----------8---|-----------8---|
A|---6-6-6/9---9-|---6-6-6/9---9-|---6-6-6/9---9-|---6-6-6/9---9-|
E|-7-------------|-7-------------|-7-------------|-7-------------|


G|--------8------|--------8------|--------8------|----------------|
D|---6--6---9--9-|---6--6---9--9-|---6--6---9--9-|---5--5-4-4-4-4-|
A|-7-------------|-7-------------|-7-------------|-7--------------|
E|---------------|---------------|---------------|----------------|



G|---------------|---------------|---------------|---------------|
D|-----------8---|-----------8---|-----------8---|-----------8---|
A|---6-6-6/9---9-|---6-6-6/9---9-|---6-6-6/9---9-|---6-6-6/9---9-|
E|-7-------------|-7-------------|-7-------------|-7-------------|

G|--------8------|--------8------|--------8------|----------------|
D|---6--6---9--9-|---6--6---9--9-|---6--6---9--9-|---5--5-4-4-4-4-|
A|-7-------------|-7-------------|-7-------------|-7--------------|
E|---------------|---------------|---------------|----------------|


[Chorus]
G|---------------|---------------|---------------|---------------|
D|-6---6-6-6-6-6-|---------------|---------------|---------------|
A|---------------|-9---9-9-9-9-9-|-7---7-7-7-7-7-|-7---7-7-7-7-7-|
E|---------------|---------------|---------------|---------------|

G|------------|----------|----------------|----------------|
D|------------|----------|----------------|----------------|
A|------------|----------|--4-4-4-4-4-4-4-|----------------|
E|-7--7--6--4-|-4--4-4-4-|----------------|--2-2-2-2-2-2-2-|


[Verse 2]
G|---------------|---------------|---------------|---------------|
D|-----------8---|-----------8---|-----------8---|-----------8---|
A|---6-6-6/9---9-|---6-6-6/9---9-|---6-6-6/9---9-|---6-6-6/9---9-|
E|-7-------------|-7-------------|-7-------------|-7-------------|

G|--------8------|--------8------|--------8------|----------------|
D|---6--6---9--9-|---6--6---9--9-|---6--6---9--9-|---5--5-4-4-4-4-|
A|-7-------------|-7-------------|-7-------------|-7--------------|
E|---------------|---------------|---------------|----------------|

G|---------------|---------------|---------------|---------------|
D|-----------8---|-----------8---|-----------8---|-----------8---|
A|---6-6-6/9---9-|---6-6-6/9---9-|---6-6-6/9---9-|---6-6-6/9---9-|
E|-7-------------|-7-------------|-7-------------|-7-------------|

G|--------8------|--------8------|--------8------|----------------|
D|---6--6---9--9-|---6--6---9--9-|---6--6---9--9-|---5--5-4-4-4-4-|
A|-7-------------|-7-------------|-7-------------|-7--------------|
E|---------------|---------------|---------------|----------------|


[Chorus]
G|---------------|---------------|---------------|---------------|
D|-6---6-6-6-6-6-|---------------|---------------|---------------|
A|---------------|-9---9-9-9-9-9-|-7---7-7-7-7-7-|-7---7-7-7-7-7-|
E|---------------|---------------|---------------|---------------|

G|------------|----------|----------------|----------------|
D|------------|----------|----------------|----------------|
A|------------|----------|--4-4-4-4-4-4-4-|----------------|
E|-7--7--6--4-|-4--4-4-4-|----------------|--2-2-2-2-2-2-2-|

G|--------------|---------------|--------------|---------------|
D|--6--6--6--6--|---------------|--------------|---------------|
A|--------------|-9---9-9-9-9-9-|--7--7--7--7--|-7---7-7-7-7-7-|
E|--------------|---------------|--------------|---------------|


G|------------|----------|----------------|----------------|
D|------------|----------|----------------|----------------|
A|------------|----------|--4-4-4-4-4-4-4-|----------------|
E|-7--7--6--4-|-4--4-4-4-|----------------|--2-2-2-2-2-2-2-|


[Interlude]
G|---------------|---------------|---------------|---------------|
D|-----------8---|-----------8---|-----------8---|-----------8---|
A|---6-6-6/9---9-|---6-6-6/9---9-|---6-6-6/9---9-|---6-6-6/9---9-|
E|-7-------------|-7-------------|-7-------------|-7-------------|


G|--------8------|--------8------|--------8------|----------------|
D|---6--6---9--9-|---6--6---9--9-|---6--6---9--9-|---5--5-4-4-4-4-|
A|-7-------------|-7-------------|-7-------------|-7--------------|
E|---------------|---------------|---------------|----------------|

G|---------------|---------------|---------------|---------------|
D|-----------8---|-----------8---|-----------8---|-----------8---|
A|---6-6-6/9---9-|---6-6-6/9---9-|---6-6-6/9---9-|---6-6-6/9---9-|
E|-7-------------|-7-------------|-7-------------|-7-------------|

G|--------8------|--------8------|--------8------|----------------|
D|---6--6---9--9-|---6--6---9--9-|---6--6---9--9-|---5--5-4-4-4-4-|
A|-7-------------|-7-------------|-7-------------|-7--------------|
E|---------------|---------------|---------------|----------------|

G|---------------|---------------|---------------|---------------|
D|-----------8---|-----------8---|-----------8---|-----------8---|
A|---6-6-6/9---9-|---6-6-6/9---9-|---6-6-6/9---9-|---6-6-6/9---9-|
E|-7-------------|-7-------------|-7-------------|-7-------------|

G|--------8------|--------8------|--------8------|----------------|
D|---6--6---9--9-|---6--6---9--9-|---6--6---9--9-|---5--5-4-4-4-4-|
A|-7-------------|-7-------------|-7-------------|-7--------------|
E|---------------|---------------|---------------|----------------|

G|---------------|---------------|---------------|---------------|
D|-----------8---|-----------8---|-----------8---|-----------8---|
A|---6-6-6/9---9-|---6-6-6/9---9-|---6-6-6/9---9-|---6-6-6/9---9-|
E|-7-------------|-7-------------|-7-------------|-7-------------|

G|--------8------|--------8------|--------8------|----------------|
D|---6--6---9--9-|---6--6---9--9-|---6--6---9--9-|---5--5-4-4-4-4-|
A|-7-------------|-7-------------|-7-------------|-7--------------|
E|---------------|---------------|---------------|----------------|


[Outro]
G|-----------------|-----9-9---------|-----------------|-----------------|
D|-----------------|-----------------|-----------------|-----9-9---------|
A|-----------------|---------9-9-6-6-|-----------------|---------9-9-6-6-|]
E|-7-7-7-7-7-7-7-7-|-7-7-------------|-7-7-7-7-7-7-7-7-|-7-7-------------|]
                                                                          ] X4
G|-----------------|-----9-9---------|-----------------|-----------------|]
D|-----------------|---------9-9-6-6-|-----------------|-5-5-5-5-5-5-5-5-|]
A|-7-7-7-7-7-7-7-7-|-7-7-------------|-7-7-7-7-7-7-7-7-|-----------------|
E|-----------------|-----------------|-----------------|-----------------|

G|-----------------|-----------------|-----------------|-----------------|
D|-----------------|-----------------|-----------------|-----------------|
A|-----------------|-----------------|-----------------|-----------------|
E|-7---------------|-----------------|-7---------------|-----------------|

G|-----------------|-----------------|-----------------|-----------------|
D|-----------------|-----------------|-----------------|-----------------|
A|-7---------------|-----------------|-7---------------|-----------------|
E|-----------------|-----------------|-----------------|-----------------|

G|-----------------|-----------------|-----------------|-----------------|
D|-----------------|-----------------|-----------------|-----------------|
A|-----------------|-----------------|-----------------|-----------------|
E|-7---------------|-----------------|-7---------------|---------7-7-7-7-|

G|-----------------|-----------------|-----------------|-----------------|
D|-----------------|-----------------|-----------------|-----------------|
A|-----------------|-----------------|-----------------|-----------------|
E|-0---------------|-----------------|-----------------|-----------------|

G|-----------------|-----------------|-----------------|-----------------|
D|-----------------|-----------------|-----------------|-----------------|
A|-----------------|-----------------|-----------------|-----------------|
E|-7---------------|-----------------|-----------------|-----------------|



************************************

| /  Slide up
| \  Slide down

************************************
Suggest correction
comments
print report bad tab
2 comments total.
0 reply
_JonM 116 wrote on September 19 2013, 07:38 am

Small correction (probably just a typo) in the second bar of the outro, should be (like the other one):

G|-----------------|
D|-----9-9---------|
A|---------9-9-6-6-|
E|-7-7-------------|

Other than that, great tab!

0 reply
TaoK 458 wrote on February 23 2014, 04:34 am

Cheers Jon, thanks.

guest
You may want to rate the tab now too:
select rating
Wanna post a correction for this tab? Suggest correction