Oops, an error
Loading. Please wait.

A Certain Romance Tab

version 4
version 4

Whole song

Interactive

10,380 views 24 this week
no commentswrite comment
1 2 3 4 5
please rate
add to favorites
launch autoscroll
font size
0
reset
how to read this tab
guitar tuner
Tab Pro tools
  • play this tab
  • loop segment
  • change instrument
  • show fretboard
  • metronome
×
Best way to learn
"A Certain Romance"
Autoscroll
slow
fast
+/-
esc
set tempo
stop
Contributor
Difficulty
intermediate
-------------------------------------------------------------------------------
                             A Certain Romance - Arctic Monkeys
-------------------------------------------------------------------------------
Tabbed by: smoovdude

Tuning: Standard

Chords Key:
B:
e|--------|-11-|--------|
B|--------|-12-|--------|
G|--------|-11-|--------|
D|----------------------|
A|----------------------|
E|----------------------|

E:
e|----------------------|
B|------|12|------------|
G|------|13|------------|
D|------|14|------------|
A|----------------------|
E|----------------------|


Intro:

e|---------------------------------------------------------------------------|
B|---------------------------------------------------------------------------|
G|------7-9---7-9---7-9---7-9------------------------------------------------|(x4)
D|----9-----9-----9-----9----------------------------------------------------|
A|---------------------------------------------------------------------------|
E|---------------------------------------------------------------------------|

e|---7--7--7---x-x-x-x-x-x-x-x--7--7--7---x-x-x------------------------------|
B|---7--7--7---x-x-x-x-x-x-x-x--7--7--7---x-x-x------------------------------|
G|---8--8--8---x-x-x-x-x-x-x-x--8--8--8---x-x-x------------------------------|(x4)
D|---9--9--9---x-x-x-x-x-x-x-x--9--9--9---x-x-x------------------------------|
A|---9--9--9---x-x-x-x-x-x-x-x--9--9--9---x-x-x------------------------------|
E|---7--7--7---x-x-x-x-x-x-x-x--7--7--7---x-x-x------------------------------|

e|-11-11---11-11-11-14-14-14-12-12-12-16-16-16-12-12-12-/18-18-18-18-18---------|
B|-12-12---12-12-12-------------------------------------------------------------|
G|-11-11---11-11-11-------------------------------------------------------------|
D|------------------------------------------------------------------------------|
A|------------------------------------------------------------------------------|
E|------------------------------------------------------------------------------|

e|-16-14-------------------------------------------------------------------------|
B|----------12-12---12-12-12-14-12----14-12------12-12-12-12-12-11-11-11---------|
G|----------13-13---13-13-13-------13-------13---13-13-13-13-13-11-11-11---------|(x2)
D|----------14-14---14-14-14---------------------14-14-14-14-14-14-14-14---------|
A|-------------------------------------------------------------------------------|
E|-------------------------------------------------------------------------------|

Verse:
        B
Well oh they might wear classic Reeboks

Or knackered Converse
                                                      E
Or tracky bottoms tucked in socks

But all of that's what the point is not

The point's that there is no romance around there
          B
And there's the truth that they can't see

They'd probably like to throw a punch at me
            E
And if you could only see them, then you would agree

Agree that there ain't no romance around there

Chorus:

e|-4-4-2-----4-2-----4-2-----4-2------------------------------------------------|
B|-------4-2-----4-0-----4-0-----4-0-0-2-2-4------------0-2-2-2-2-2-2-2---------|
G|--------------------------------------------1-1-1-1--1-----------------4-4-4--|
D|------------------------------------------------------------------------------|
A|------------------------------------------------------------------------------|
E|------------------------------------------------------------------------------|

Verse:
            B
Cause over there there's broken bones

There's only music, so that there's new ringtones
  E
And it doesn't take no Sherlock Holmes

To see it's a little different around here
   B
Don't get me wrong though there's boys in bands

And kids who like to scrap with pool cues in their hands
         E
And just cause he's had a couple of cans

He thinks it's alright to act like a dickhead

Chorus:

e|-4-4-2-----4-2-----4-2-----4-2-----------------------------------------------|
B|-------4-2-----4-0-----4-0-----4-0-0-2-2-4------------0-2-2-2-2-2-2-2--------|
G|--------------------------------------------1-1-1-1--1-----------------4-4-4-|(x2)
D|-----------------------------------------------------------------------------|
A|-----------------------------------------------------------------------------|
E|-----------------------------------------------------------------------------|

Bridge:

e|----------------------------------------------------------------------------------|
B|-------------------12-14-14-14-14-12-12-(12)-(12)-(12)-(12)-(11)-(11)-(11)--------|
G|--BASS--BASS-------13--------------------13--13---13--13--11--11--11--------------|
D|-------------------14--------------------(14)-(14)-(14)-(14)-(14)-(14)-(14)-------|
A|----------------------------------------------------------------------------------|
E|----------------------------------------------------------------------------------|

Repeat Intro (x1)

Verse:
        B
But over there there's friends of mine

What can I say, I've known them for a long long time
E
And they might overstep the line

But you just cannot get angry in the same way
B
No, not in the same way

So not in the same way
                           E
Oh no, oh no, no!

Outro:

e|-----------------------------------------------------------------------------|
B|-----------------------------------------------------------------------------|
G|------------------------------------------------------8-------------8-6-4----|
D|-9-9-9-9-9-9-9-8-9-11-9-8-9-9-9-9-9-9-9-8-9-11-9-11---6-6-6-6-6-6------------|
A|-----------------------------------------------------------------------------|
E|-----------------------------------------------------------------------------|

e|-----------------------------------------------------------------------------|
B|-----------------------------------------------------------------------------|
G|-----------------------------------------------------------------------------|(x2)
D|-6-6-6-6-6-6-6-5-5-5-5-5-5---------------------------------------------------|
A|-----------------------------------------------------------------------------|
E|-----------------------------------------------------------------------------|

e|-----------------------------------------------------------------------------|
B|-----------------------------------------------------------------------------|
G|-14-14-12-12---------14-14-14-12-12------------------------------------------|(x7)
D|-------------14-14-14----------------14-14-14--------------------------------|
A|-----------------------------------------------------------------------------|
E|-----------------------------------------------------------------------------|

e|-----------------------------------------------------------------------------|
B|-----------------------------------------------------------------------------|
G|-14-14-12-12-------------------12-12-----------------------------------------|
D|-------------14-14-14-12-14-14------14-14-12-12------------------------------|
A|-----------------------------------------------------------------------------|
E|-----------------------------------------------------------------------------|

e|-----------------------------------------------------------------------------|
B|-----------------------------------------------------------------------------|
G|-----------------------------------------------------------------------------|
D|-9--9-9-8-8--8-8-8-6-6--6-6-6-6-6-5-5--5-------------------------------------|
A|-----------------------------------------------------------------------------|
E|-----------------------------------------------------------------------------|

e|---------------------------------------------------------7-------------------|
B|---------------------------------------------------------7-------------------|
G|---------------------------------------------------------8-------------------|
D|-9--9-9-8-8-8-9-11-9-8-6-6-6-6-6-6-6-h5-5--------------9---------------------|
A|---------------------------------------------------------9-------------------|
E|---------------------------------------------------------7-------------------|



************************************

| /   slide up
| \   slide down
| h   hammer-on
| p   pull-off
| ~   vibrato
| +   harmonic
| x   Mute note
| b   Bend
| pb  Pre-bend
| br  Bend release
| pbr Pre-bend release
| brb Bend release bend

************************************
comments
We did not receive enough feedback on this tab! Please rate:
print report bad tab
1 2 3 4 5
I want to post or [tab]
guest
You may want to rate the tab now too:
select rating
Please do not post tabs as comments. Select "correction" instead!