Oops, an error
Loading. Please wait.

A Certain Romance Bass Tab

version 5
version 5

Interactive

1,209 views 1 this week
no commentswrite comment
1 2 3 4 5
please rate
add to favorites
launch autoscroll
font size
0
reset
guitar tuner
Autoscroll
slow
fast
+/-
esc
set tempo
stop
Help us to improve Ultimate-Guitar.com Take our survey!
×
Author
Pedro Zappa 2,710
Artist: Arctic Monkeys

Album: Whatever People Say I Am That's What I Am Not



All tabs by Pedro Zappa
-----------------------------------------------------------------------------
-----------------------------------------------------------------------------


13. A Certain Romance


Intro

(wait)

G||--------------------|--------------------||  x4
D||--------------------|--------------------||
A||--------------------|--------------------||
E||-7-7--7-7--7-7--7-7-|-7-7--7-7--7-7--7-7-||
    i    i    i    i     i    i    i    i
G||----------------------||  x8
D||----------------------||
A||----------------------||
E||-7--7---7--7\---(0)/--||
    i    i    i    i   
G||--------------------|--------------------|
D||--------------------|--------------------|
A||--------------------|--------------------|
E||-7------------------|--------------------|
    i    i    i    i     i    i    i    i
G||--------------------|--------------------|
D||--------------------|--------------------|
A||--------------------|--------------------|
E||--------------------|--------------------|
    i    i    i    i     i    i    i    i
G||--------------------|--------------------|
D||--------------------|--------------------|
A||-7------------------|--------------------|
E||--------------------|--------------------|
    i    i    i    i     i    i    i    i
G||--------------------|--------------------|
D||--------------------|--------------------|
A||--------------------|--------------------|
E||--------------------|------------------5-|
    i    i    i    i     i    i    i    i

G||--------------------|--------------------|
D||--------------------|--------------------|
A||--------------------|--------------------|
E||-7------------------|--------------------|
    i    i    i    i     i    i    i    i
G||--------------------|--------------------|
D||--------------------|--------------------|
A||--------------------|--------------------|
E||--------------------|---7--7-7--7-7--7-5-|
    i    i    i    i     i    i    i    i
G||--------------------|--------------------|
D||--------------------|--------------------|
A||-7------------------|--------------------|
E||--------------------|--------------------|
    i    i    i    i     i    i    i    i
G||--------------------|--------------------|
D||--------------------|--------------------|
A||--------------------|-------------7--7-7-|
E||--------------------|--------------------|
    i    i    i    i     i    i    i    i

Verse 1

G||--------------------|--------------------|
D||-------------8------|-------------8------|
A||---6----6--9----9---|---6----6--9----9---|
E||-7------------------|-7------------------|
    i    i    i    i     i    i    i    i
G||--------------------|--------------------|
D||-------------8------|-------------8------|
A||---6----6--9----9---|---6----6--9----9---|
E||-7------------------|-7------------------|
    i    i    i    i     i    i    i    i
G||-----------8--------|-----------8--------|
D||---6----6----9----9-|---6----6----9----9-|
A||-7------------------|-7------------------|
E||--------------------|--------------------|
    i    i    i    i     i    i    i    i
G||-----------8--------|--------------------||  x3
D||---6----6----9----9-|---6--6-6--5-5--5-5-||
A||-7------------------|-7------------------||
E||--------------------|--------------------||
    i    i    i    i     i    i    i    i

Chorus 1

G||--------------------|--------------------|
D||-6------6----6--6---|-4------4----4--4---|
A||--------------------|--------------------|
E||--------------------|--------------------|
    i    i    i    i     i    i    i    i
G||--------------------|--------------------|
D||-2------2----2--2-2-|-2------2----2--2---|
A||--------------------|------------------x-|
E||--------------------|--------------------|
    i    i    i    i     i    i    i    i
G||--------------------|--------------------|
D||--------------------|--------------------|
A||-2------2----1----0-|--------------------|
E||--------------------|-4----4-4----4--4-4-|
    i    i    i    i     i    i    i    i
G||--------------------|--------------------|
D||--------------------|--------------------|
A||---4--4-4--4-4--4-4-|--------------------|
E||--------------------|---2--2-2--2-2--2-2-|
    i    i    i    i     i    i    i    i

Verse 2

G||--------------------|--------------------|
D||-------------8------|-------------8------|
A||---6----6--9----9---|---6----6--9----9---|
E||-7------------------|-7------------------|
    i    i    i    i     i    i    i    i
G||--------------------|--------------------|
D||-------------8------|-------------8------|
A||---6----6--9----9---|---6----6--9----9---|
E||-7------------------|-7------------------|
    i    i    i    i     i    i    i    i
G||-----------8--------|-----------8--------|
D||---6----6----9----9-|---6----6----9----9-|
A||-7------------------|-7------------------|
E||--------------------|--------------------|
    i    i    i    i     i    i    i    i
G||-----------8--------|--------------------||  x2
D||---6----6----9----9-|---6--6-6--5-5--5-5-||
A||-7------------------|-7------------------||
E||--------------------|--------------------||
    i    i    i    i     i    i    i    i

Chorus 2

G||--------------------|--------------------|
D||-6------6----6--6---|-4------4----4--4---|
A||--------------------|--------------------|
E||--------------------|--------------------|
    i    i    i    i     i    i    i    i
G||--------------------|--------------------|
D||-2------2----2--2-2-|-2------2----2--2---|
A||--------------------|------------------x-|
E||--------------------|--------------------|
    i    i    i    i     i    i    i    i
G||--------------------|--------------------|
D||--------------------|--------------------|
A||-2------2----1----0-|--------------------|
E||--------------------|-4----4-4----4--4-4-|
    i    i    i    i     i    i    i    i
G||--------------------|--------------------|
D||--------------------|--------------------|
A||---4--4-4--4-4--4-4-|--------------------|
E||--------------------|---2--2-2--2-2--2-2-|
    i    i    i    i     i    i    i    i

G||--------------------|--------------------|
D||-6---6---6-6\-------|-4------4----4--4-4-|
A||--------------------|--------------------|
E||--------------------|--------------------|
    i    i    i    i     i    i    i    i
G||--------------------|--------------------|
D||--------------------|--------------------|
A||-7---7---7-7\-------|-7------7----7--7-7-|
E||--------------------|--------------------|
    i    i    i    i     i    i    i    i
G||--------------------|--------------------|
D||--------------------|--------------------|
A||-2------2----1----0-|--------------------|
E||--------------------|-4----4-4----4--4-4-|
    i    i    i    i     i    i    i    i
G||--------------------|--------------------|
D||--------------------|--------------------|
A||---4--4-4--4-4--4-4-|--------------------|
E||--------------------|---2--2-2--2-2--2-2-|
    i    i    i    i     i    i    i    i

Verse 3

G||--------------------|--------------------|
D||-------------8------|-------------8------|
A||---6----6--9----9---|---6----6--9----9---|
E||-7------------------|-7------------------|
    i    i    i    i     i    i    i    i
G||--------------------|--------------------|
D||-------------8------|-------------8------|
A||---6----6--9----9---|---6----6--9----9---|
E||-7------------------|-7------------------|
    i    i    i    i     i    i    i    i
G||-----------8--------|-----------8--------|
D||---6----6----9----9-|---6----6----9----9-|
A||-7------------------|-7------------------|
E||--------------------|--------------------|
    i    i    i    i     i    i    i    i
G||-----------8--------|--------------------||  x4
D||---6----6----9----9-|---6--6-6--5-5--5-5-||
A||-7------------------|-7------------------||
E||--------------------|--------------------||
    i    i    i    i     i    i    i    i

Outro

G||--------------------|--------------------|
D||--------------------|------8-8-----------|
A||--------------------|-----------9-9--6-6-|
E||-7-7--7-7--7-7--7-7-|-7-7----------------|
    i    i    i    i     i    i    i    i
G||--------------------|--------------------|
D||--------------------|------8-8-----------|
A||--------------------|-----------9-9--6-6-|
E||-7-7--7-7--7-7--7-7-|-7-7----------------|
    i    i    i    i     i    i    i    i
G||--------------------|------8-8-----------|
D||--------------------|-----------9-9--6-6-|
A||-7-7--7-7--7-7--7-7-|-7-7----------------|
E||--------------------|--------------------|
    i    i    i    i     i    i    i    i
G||--------------------|---------------------------||  x4
D||--------------------|---------------------------||
A||-7-7--7-7--7-7--7-7-|-10-10--10-10--10-10--10-0-||
E||--------------------|---------------------------||
    i    i    i    i     i      i      i      i

G||--------------------|--------------------|
D||--------------------|--------------------|
A||--------------------|--------------------|
E||-7------------------|--------------------|
    i    i    i    i     i    i    i    i
G||--------------------|--------------------|
D||--------------------|--------------------|
A||--------------------|--------------------|
E||-7------------------|--------------------|
    i    i    i    i     i    i    i    i
G||--------------------|--------------------|
D||--------------------|--------------------|
A||-7------------------|--------------------|
E||--------------------|--------------------|
    i    i    i    i     i    i    i    i
G||--------------------|--------------------|
D||--------------------|--------------------|
A||-7------------------|------------------7-|
E||--------------------|--------------------|
    i    i    i    i     i    i    i    i

G||--------------------|--------------------|
D||--------------------|--------------------|
A||--------------------|--------------------|
E||-7------------------|--------------------|
    i    i    i    i     i    i    i    i
G||--------------------|--------------------|
D||--------------------|--------------------|
A||--------------------|--------------------|
E||-7------------------|----7--7---7--7--7\-|
    i    i    i    i     i    i    i    i
G||--------------------|--------------------|
D||--------------------|--------------------|
A||--------------------|--------------------|
E||-0------------------|--------------------|
    i    i    i    i     i    i    i    i
G||--------------------|--------------------|-----|
D||--------------------|--------------------|-----|
A||--------------------|--------------------|-----|
E||--------------------|--------------------|-7---|
    i    i    i    i     i    i    i    i


Tab by Pedro Zappa
-----------------------------------------------------------------------------
-----------------------------------------------------------------------------
Suggest correction new What's this?
You can suggest a correction to this tab. Community and Mods will review your correction and vote to approve or reject it.
comments
We did not receive enough feedback on this tab! Please rate:
print report bad tab
1 2 3 4 5
guest
You may want to rate the tab now too:
select rating
Please do not post tabs as comments. Select "correction" instead!