Oops, an error
Loading. Please wait.

A Certain Romance Bass Tab

version 6
version 6

Interactive

487 views 3 this week
no commentswrite comment
1 2 3 4 5
please rate
add to favorites
launch autoscroll
font size
0
reset
guitar tuner
Autoscroll
slow
fast
+/-
esc
set tempo
stop
Help us to improve Ultimate-Guitar.com Take our survey!
×
Author
                             A CERTAIN ROMANCE - Arctic Monkeys
-------------------------------------------------------------------------------
Tabbed by: Kevin

Tuning: Standard

Key: B major

0:11
G|---------------------------------|
D|---------------------------------|x4
A|---------------------------------|
E|-7-7-7-7-7-7-7-7-7-7-7-7-7-7-7-7-|

0:24
G|----------------------------------|
D|----------------------------------|
A|----------------------------------|
E|-7-7-7----7-7-7----7-7-7----7-7-7-|

0:37
G|----------|----------|------------------------------|----------------------|
D|----------|----------|------------------------------|----------------------|
A|----------|-7~~------|------------------------------|-7~~------------7-7-7-|
E|-7~~------|--------0-|-7~~----------7-7-7-7-7-7-7-0-|----------------------|

1:05
G|---------------------------------------------------------|
D|----------8-------------8-------------8-------------8----|
A|---6--6-9---9----6--6-9---9----6--6-9---9----6--6-9---9--|
E|-7-------------7-------------7-------------7-------------|
                                                       
G|--------8-------------8-------------8---------------------|-----------------|
D|---6--6---9--9---6--6---9--9---6--6---9--9---6--6-5-5-5-5-|---6--6-5-5-5-/9-|
A|-7-------------7-------------7-------------7--------------|-7---------------|
E|----------------------------------------------------------|-----------------|
                                                            right^before^chorus

1:46
G|--------------------------------------------------|
D|--------------------------------------------------|
A|-11--11--11-11--9--9--9-9--7--7--7-7--7--7--7-7---|
E|------------------------------------------------0-|

G|--------------------------------------------------------|
D|--------------------------------------------------------|
A|--------------------------4-4-4-4--4-4-4----------------|
E|-7--7--7-7--4--4-4--4-4-4----------------2-2-2-2--2-2-2-|

2:00
G|---------------------------------------------------------|
D|----------8-------------8-------------8-------------8----|
A|---6--6-9---9----6--6-9---9----6--6-9---9----6--6-9---9--|
E|-7-------------7-------------7-------------7-------------|
                                                       
G|--------8-------------8-------------8---------------------|-----------------|
D|---6--6---9--9---6--6---9--9---6--6---9--9---6--6-5-5-5-5-|---6--6-5-5-5-/9-|
A|-7-------------7-------------7-------------7--------------|-7---------------|
E|----------------------------------------------------------|-----------------|
                                                            right^before^chorus

2:28
G|--------------------------------------------------|
D|--------------------------------------------------|
A|-11--11--11-11--9--9--9-9--7--7--7-7--7--7--7-7---|
E|------------------------------------------------0-|

G|--------------------------------------------------------|
D|--------------------------------------------------------|
A|--------------------------4-4-4-4--4-4-4----------------|
E|-7--7--7-7--4--4-4--4-4-4----------------2-2-2-2--2-2-2-|

G|-------------------------------------------------------|
D|-------------------------------------------------------|
A|-/11--11--11-11\--/9--9--9-9--7--7--7-7\--/7--7--7-7---|
E|-----------------------------------------------------0-|

G|--------------------------------------------------------|
D|--------------------------------------------------------|
A|--------------------------4-4-4-4--4-4-4----------------|
E|-7--7--7-7--4--4-4--4-4-4----------------2-2-2-2--2-2-2-|

2:56
G|---------------------------------------------------------|
D|----------8-------------8-------------8-------------8----|
A|---6--6-9---9----6--6-9---9----6--6-9---9----6--6-9---9--|
E|-7-------------7-------------7-------------7-------------|
                                                       
G|--------8-------------8-------------8---------------------|
D|---6--6---9--9---6--6---9--9---6--6---9--9---6--6-5-5-5-5-|
A|-7-------------7-------------7-------------7--------------|
E|----------------------------------------------------------|

3:50
G|-------------------------------------------------------------------|
D|----------------------8-8------------------------------8-8---------|
A|--------------------6-----9-9-6-6--------------------6-----9-9-6-6-|
E|-7-7-7-7777-7-7-777---------------7-7-7-7777-7-7-777---------------|

G|----------------------8-8---------------------------------------------------|
D|--------------------6-----9-9-6-6-------------------------------------------|
A|-7-7-7-7777-7-7-777---------------7-7-7-7777-7-7-77/10-10-10-10-10-10-10-10-|
E|----------------------------------------------------------------------------|

4:47
G|-----------|-------------|--------------------|-----------|-----------|
D|-----------|-------------|--------------------|-----------|-----------|
A|-----------|-7~---7~---7-|--------------------|-----------|-----------|
E|-7~---7~---|-------------|-7~---7~--7-7-7-7-4-|-0~---0~---|-7~~~~-----|

| /  slide up
| \  slide down
| h  hammer-on
| p  pull-off
| ~  vibrato
| +  harmonic
| x  Mute note
===============================================================================
Suggest correction
What's this?
You can suggest a correction to this tab. Community and Mods will review your correction and vote to approve or reject it.
comments
We did not receive enough feedback on this tab! Please rate:
print report bad tab
1 2 3 4 5
guest
You may want to rate the tab now too:
select rating
Please do not post tabs as comments. Select "correction" instead!