Oops, an error
Loading. Please wait.

All My Own Stunts Bass Tab

version 1
version 1

Whole song

Interactive

5,119 views 3 this week
no commentswrite comment
1 2 3 4 5
excellent!
x 6
add to favorites
launch autoscroll
font size
0
reset
guitar tuner
Autoscroll
slow
fast
+/-
esc
set tempo
stop
Help us to improve Ultimate-Guitar.com Take our survey!
×
Author
Difficulty
intermediate
All My Own Stunts - ARCTIC MONKEYS

Verse
G|--------------------------------|
D|--------------------------------|
A|--------------------------------|
E|-33332-22-22-2--33332-22-22-2---|

Little variations on verse
G|-----------------|
D|-----------------|
A|---7-------------|
E|--9-9-2-22-22-2--|

G|----------------|
D|----------------|
A|----------------|
E|-235-2-22-22-2--|

chorus
G|------------------------------------------------------------|
D|------------------------------------------------------------|
A|---9--7-5--4-2--0-4--0-------------7-9---------0-4--0-------|
E|-9----------------------0-0-2----9------5-5-7---------0-0-2-|

G|-----------------------------------------------------------------|
D|-----------------------------------------------------------------|
A|---7-9----------------------------------7-9--------0-4--0--------|
E|-9-----9-9-10--9-10-12-10-9--0--0--2--9-----5-5-7---------0-0-2--|

G|-----------------------------------------------|
D|-----------------------------------------------|
A|-----------------------------------------------|
E|-/16h17-14-0-14-12-14--2-/16h17-14-0-14-0-333--|

verse

chorus

'bridge'
G|-------------------------------------------------|
D|-------------------------------------------------|
A|-------------------------------------------------|
E|-2/16h17-14-2-0-2---/16h18-14-2-0-2--------------|

ending
G|--------------------------------------------|
D|--------------------------------------------|
A|--------5------------------5----------------|
E|-3-33-3---5-2-22-2--3-33-3---5-2-/16h17-14--|
Suggest correction
comments
print report bad tab
guest
You may want to rate the tab now too:
select rating
Please do not post tabs as comments. Select "correction" instead!