Oops, an error
Loading. Please wait.

Arabella Bass Tab

version 1
version 1

Whole song

Interactive

69,914 views 279 this week
1 commentread comment
1 2 3 4 5
excellent!
x 35
add to favorites
launch autoscroll
font size
0
reset
guitar tuner
Autoscroll
slow
fast
+/-
esc
set tempo
stop
Help us to improve Ultimate-Guitar.com Take our survey!
×
Author
Difficulty
intermediate
Tuning: standard (EADG)


[Intro]
                     
G|-------------------------------------------------------------|
D|-------------------------------------------------------------|  
A|-----------------------------------0-------------------------|
E|--0-0---0-5-5---0-3-3-X-5\---0-2-3---3-2-0---5-5---3-3-X-5\--|


[Verse 1]
                   
G|-------------------------------------------------------------|
D|-------------------------------------------------------------|  
A|-----------------------------------0-------------------------|
E|--0-0---0-5-5---0-3-3-X-5\---0-2-3---3-2-0---5-5---3-3-X-5\--|

G|----------------------------------|
D|----------------------------------|  
A|--------0-------------------------|
E|--0-2-3---3-2-0---5-5---3-3-X-5\--|

G|---------------------------------------------------------------|
D|---------------------------------------------------------------|  
A|-----------------------------------0---------------------------|
E|--0-0---0-5-5---0-3-3-X-5\---0-2-3---3-2-0---0-5-5---3-3-X-5\--|

G|------------------------------|
D|------------------------------|  
A|--------/7b-------------------|
E|--0-0---------0-5-5---0-3-3/--|


[Chorus]

G|------------------|
D|------------------|  
A|------------------|
E|--10-12\---5---3--|(x3)

G|---------|
D|---------|  
A|---------|
E|--10-12--|


[Chorus]

G|-----------------------------------|
D|-------5-------7-------5--5----/9--|  
A|--5-7-----5-7-----5-7-------7------|
E|-----------------------------------|(x4)


[Verse 2]
                     
G|-------------------------------------------------------------|
D|-------------------------------------------------------------|  
A|-----------------------------------0-------------------------|
E|--0-0---0-5-5---0-3-3-X-5\---0-2-3---3-2-0---5-5---3-3-X-5\--|

G|----------------------------------|
D|----------------------------------|  
A|--------0-------------------------|
E|--0-2-3---3-2-0---5-5---3-3-X-5\--|

G|---------------------------------------------------------------|
D|---------------------------------------------------------------|  
A|-----------------------------------0---------------------------|
E|--0-0---0-5-5---0-3-3-X-5\---0-2-3---3-2-0---0-5-5---3-3-X-5\--|

G|------------------------------|
D|------------------------------|  
A|--------/7b-------------------|
E|--0-0---------0-5-5---0-3-3/--|


[Chorus]

G|------------------|
D|------------------|  
A|------------------|
E|--10-12\---5---3--|(x3)

G|---------|
D|---------|  
A|---------|
E|--10-12--|


[Chorus]

G|-----------------------------------|
D|-------5-------7-------5--5----/9--|  
A|--5-7-----5-7-----5-7-------7------|
E|-----------------------------------|(x3)

G|-------------------------------|
D|-------5-------7-------5--5----| 
A|--5-7-----5-7-----5-7-------7--|
E|-------------------------------|


[Bridge]

G|-----------------------------------------------------------|
D|-----------------------------------------------------------|  
A|-----------------------------------------------------------|
E|--5-7-8--8--8--8--5--5--5--5--0--0--0--0--3--3--3--3-------|

G|------------------------------------------------------|
D|------------------------------------------------------|
A|--5-----------------------------------------5~--5-6~--|
E|-----8--8--8--8--5--5--5--5--8--8--8--8---------------|


[Solo]

G|------------------------------------------------------------------|
D|---------5-5-5-5---------7-7-7-7---------5-5-5-5---------9-9-9-9--|  
A|--5h-777-----------5h777-----------5h777-----------5h777----------|
E|------------------------------------------------------------------|(x2)

G|-----------------------------------|
D|-------5-------7-------5--5----/9--|  
A|--5-7-----5-7-----5-7-------7------|
E|-----------------------------------|(x2)

G|--------|
D|--------|  
A|--5-7\--|
E|--------|

************************************

| /  slide up
| \  slide down
| h  hammer-on
| p  pull-off
| ~  vibrato
| +  harmonic
| x  Mute note
| b  Bend

************************************
Suggest correction
comments
print report bad tab
1 comment total.
+4 reply
Challenger440 206 wrote on May 2 2014, 12:01 pm

For the first part of bridge, go one octave higher to achieve the climbing sound out of the previous riff.

This:
G|-------------------------------|
D|-------5-------7-------5--5----| (x1)
A|--5-7-----5-7-----5-7-------7--|
E|-------------------------------|
Plays right into this:
G|-----------------------------------------|
D|--7-9-10--10-(X8)-7-(X8)-----------------| (x1)
A|--------------------------7-(X8)-10-(X8--|
E|-----------------------------------------|

guest
You may want to rate the tab now too:
select rating
Please do not post tabs as comments. Select "correction" instead!