Oops, an error
Loading. Please wait.

Arabella Tab

version 1
version 1

Whole song

Interactive

246,003 views 807 this week
15 commentsread comments
1 2 3 4 5
excellent!
x 110
add to favorites
launch autoscroll
font size
0
reset
how to read this tab
guitar tuner
Tab Pro tools
  • play this tab
  • loop segment
  • change instrument
  • show fretboard
  • metronome
×
Best way to learn
"Arabella"
Autoscroll
slow
fast
+/-
esc
set tempo
stop
Contributor
Difficulty
novice
[Intro]

          P.M.----------
E|---------------5-------|
B|---------5-7-8---8-7-5-|
G|-/14~------------------| x2
D|-----------------------|
A|-----------------------|
E|-----------------------|


[Verse]

    P.M.----------
E|---------5-------|
B|---5-7-8---8-7-5-|
G|-----------------| x2
D|-----------------|
A|-----------------|
E|-----------------|


[Pre-Chorus]

E|-------------|-------|
B|-------------|-------|
G|-7-9---------|---7-9-|
D|-7-9---7---5-|x3-7-9-|
A|-5-7---7---5-|---5-7-|
E|-------5---3-|-------|


[Chorus]

E|-----------------------------------|
B|-----------------------------------|
G|-7-9--12--7-9-14--7-9-12--12-9--16-|
D|-7-9--12--7-9-14--7-9-12--12-9--16-|
A|-5-7--10--5-7-12--5-7-10--10-7--14-|
E|-----------------------------------|

(Em)


[Verse] (play continuously A|-7- muted)

    P.M.----------
E|---------5-------|
B|---5-7-8---8-7-5-|
G|-----------------| x2
D|-----------------|
A|-----------------|
E|-----------------|


[Pre-Chorus]

E|-------------|-------|
B|-------------|-------|
G|-7-9---------|---7-9-|
D|-7-9---7---5-|x3-7-9-|
A|-5-7---7---5-|---5-7-|
E|-------5---3-|-------|


[Chorus]

E|-----------------------------------|
B|-----------------------------------|
G|-7-9--12--7-9-14--7-9-12--12-9--16-|
D|-7-9--12--7-9-14--7-9-12--12-9--16-|
A|-5-7--10--5-7-12--5-7-10--10-7--14-|
E|-----------------------------------|


[Bridge]

(chords)
E|--------------------------------------------------|
B|--------------------------------------------------|
G|-245--555--222--999--121212--555--222--555--77-88-|
D|-245--555--222--999--121212--555--222--555--77-88-|
A|-023--333--000--777--101010--333--000--333--55-66-|
E|--------------------------------------------------|


[Solo]

E|---------------------------------------------------------------------------|
B|---------------------------------------------------------------------------|
G|-14b16b14p12---x7-12/14/12------12h14b16-14-13h14p12--------------12h14b16-|
D|------------14-------------12h14---------------------14------12h14---------|
A|--------------------------------------------------------12h14--------------|
E|---------------------------------------------------------------------------|

E|------------------------|
B|--------18--------------|
G|14-14b16--14b16b14~-12--|
D|----------------------14|
A|------------------------|
E|------------------------|


[Chorus]

E|-----------------------------------|
B|-----------------------------------|
G|-7-9--12--7-9-14--7-9-12--12-9--16-|
D|-7-9--12--7-9-14--7-9-12--12-9--16-|
A|-5-7--10--5-7-12--5-7-10--10-7--14-|
E|-----------------------------------|

Ends with
E|-----|
B|-----|
G|-7-9-|
D|-7-9-|
A|-5-7-|
E|-----|


************************************

| x  Dead note
| h  Hammer-on
| p  Pull-off
| b  Bend
| /  Slide up
| ~  Vibrato

************************************
comments
print report bad tab
15 comments total. Showing first comments.
+11 reply
LewissssC wrote on September 6 2013, 04:32 pm

Great tab but based on the live video the chorus is:
E|-----------------------------|
B|-----------------------------|
G|-7-9----7-9----7-9-----------|
D|-7-9-5--7-9-7--7-9-5--5-2--7-|
A|-5-7-5--5-7-7--5-7-5--5-2--7-|
E|-----3------5------3--3-0--5-|

Same chords just wrong octave on some ( works either way though)

-1 reply
marktrfc8 wrote on September 9 2013, 11:41 am

Looking at the live video, Cookie does seem to be playing chords lower on the neck like you suggest. They just don't sound quite right though.

0 reply
sheks wrote on September 10 2013, 09:20 am

Chorus
E|-----------------------------*--*--|
B|-----------------------------*--*--|
G|-7-9--12--7-9-14--7-9-12--12-7-----|
D|-7-9--12--7-9-14--7-9-12--12-7--9--|
A|-5-7--10--5-7-12--5-7-10--10-5--9--|
E|--------------------------------7--|
or
E|-----|
B|-----|
G|--4--|
D|--4--|
A|--2--|
E|-----|

stars to show the two chords that need changing in the chorus 1 wrong (it goes abck to A and 1 just to high). On the album at the least second to last chord is definitely a B like in the original tab but lower (and NOT an Em like in the correction above) Other than that great tab 5*.

I want to post or [tab]
guest
You may want to rate the tab now too:
select rating
Please do not post tabs as comments. Select "correction" instead!