Oops, an error
Loading. Please wait.

Arabella Tab

version 1
version 1

Whole song

  • Includes a second guitar in place of a bass.
  • This version got the solo correction and also ther... Show more

Interactive

298,029 views 762 this week
16 commentsread comments
1 2 3 4 5
x 124
add to favorites
launch autoscroll
font size
0
reset
how to read this tab
guitar tuner
backing track
0:00
0:00
×
Best way to learn
"Arabella"
Autoscroll
slow
fast
+/-
esc
set tempo
stop
Author
Difficulty
novice
[Intro]

          P.M.----------
E|---------------5-------|
B|---------5-7-8---8-7-5-|
G|-/14~------------------| x2
D|-----------------------|
A|-----------------------|
E|-----------------------|


[Verse]

    P.M.----------
E|---------5-------|
B|---5-7-8---8-7-5-|
G|-----------------| x2
D|-----------------|
A|-----------------|
E|-----------------|


[Pre-Chorus]

E|-------------|-------|
B|-------------|-------|
G|-7-9---------|---7-9-|
D|-7-9---7---5-|x3-7-9-|
A|-5-7---7---5-|---5-7-|
E|-------5---3-|-------|


[Chorus]

E|-----------------------------------|
B|-----------------------------------|
G|-7-9--12--7-9-14--7-9-12--12-9--16-|
D|-7-9--12--7-9-14--7-9-12--12-9--16-|
A|-5-7--10--5-7-12--5-7-10--10-7--14-|
E|-----------------------------------|

(Em)


[Verse] (play continuously A|-7- muted)

    P.M.----------
E|---------5-------|
B|---5-7-8---8-7-5-|
G|-----------------| x2
D|-----------------|
A|-----------------|
E|-----------------|


[Pre-Chorus]

E|-------------|-------|
B|-------------|-------|
G|-7-9---------|---7-9-|
D|-7-9---7---5-|x3-7-9-|
A|-5-7---7---5-|---5-7-|
E|-------5---3-|-------|


[Chorus]

E|-----------------------------------|
B|-----------------------------------|
G|-7-9--12--7-9-14--7-9-12--12-9--16-|
D|-7-9--12--7-9-14--7-9-12--12-9--16-|
A|-5-7--10--5-7-12--5-7-10--10-7--14-|
E|-----------------------------------|


[Bridge]

(chords)
E|--------------------------------------------------|
B|--------------------------------------------------|
G|-245--555--222--999--121212--555--222--555--77-88-|
D|-245--555--222--999--121212--555--222--555--77-88-|
A|-023--333--000--777--101010--333--000--333--55-66-|
E|--------------------------------------------------|


[Solo]

E|---------------------------------------------------------------------------|
B|---------------------------------------------------------------------------|
G|-14b16b14p12---x7-12/14/12------12h14b16-14-13h14p12--------------12h14b16-|
D|------------14-------------12h14---------------------14------12h14---------|
A|--------------------------------------------------------12h14--------------|
E|---------------------------------------------------------------------------|

E|------------------------|
B|--------18--------------|
G|14-14b16--14b16b14~-12--|
D|----------------------14|
A|------------------------|
E|------------------------|


[Chorus]

E|-----------------------------------|
B|-----------------------------------|
G|-7-9--12--7-9-14--7-9-12--12-9--16-|
D|-7-9--12--7-9-14--7-9-12--12-9--16-|
A|-5-7--10--5-7-12--5-7-10--10-7--14-|
E|-----------------------------------|

Ends with
E|-----|
B|-----|
G|-7-9-|
D|-7-9-|
A|-5-7-|
E|-----|


************************************

| x  Dead note
| h  Hammer-on
| p  Pull-off
| b  Bend
| /  Slide up
| ~  Vibrato

************************************
Suggest correction
comments
print report bad tab
16 comments total. Showing first comments.
+13 reply
LewissssC 20 Sep 06, 2013 12:32 PM

Great tab but based on the live video the chorus is:
E|-----------------------------|
B|-----------------------------|
G|-7-9----7-9----7-9-----------|
D|-7-9-5--7-9-7--7-9-5--5-2--7-|
A|-5-7-5--5-7-7--5-7-5--5-2--7-|
E|-----3------5------3--3-0--5-|

Same chords just wrong octave on some ( works either way though)

0 reply
sheks 72 Sep 10, 2013 05:20 AM

Chorus
E|-----------------------------*--*--|
B|-----------------------------*--*--|
G|-7-9--12--7-9-14--7-9-12--12-7-----|
D|-7-9--12--7-9-14--7-9-12--12-7--9--|
A|-5-7--10--5-7-12--5-7-10--10-5--9--|
E|--------------------------------7--|
or
E|-----|
B|-----|
G|--4--|
D|--4--|
A|--2--|
E|-----|

stars to show the two chords that need changing in the chorus 1 wrong (it goes abck to A and 1 just to high). On the album at the least second to last chord is definitely a B like in the original tab but lower (and NOT an Em like in the correction above) Other than that great tab 5*.

0 reply
Mctoedie94 23 Sep 20, 2013 02:42 AM

From what I hear, the pre-chorus and chorus should be something like this:

Pre-Chorus
E|-------------|-------|
B|-------------|-------|
G|-------------|-------|
D|-7-9---------|x3-7-9-|
A|-5-7---7---5-|---5-7-|
E|-------5---3-|-------|

Chorus
E|--------------------------------------|
B|--------------------------------------|
G|--------------------------------------|
D|-7-9---5---7-9---7---7-9---5---9-7--9-|
A|-5-7---5---5-7---7---5-7---5---7-5--9-|
E|--------------------------------------|

(Notice the fourth time, the D- and E-chord are reversed)

I just can't hear the octaves which would make it a power chord. The Monkeys' new sound barely has octaves in the power chords. Funny thing is that they do play them in the next part.

For the bridge, I would leave out the fifth, so that you actually play octaves there:

(chords)
E|--------------------------------------------------|
B|--------------------------------------------------|
G|---5--555-------999--121212--555-------555--77-88-|
D|-79--------777--------------------777-------------|
A|---3--333-------777--101010--333-------333--55-66-|
E|-57--------555--------------------555-------------|

I prefer playing the A-octave on the E- and D-string, because somehow I find it difficult to play that octave on the A- and G-string.

Your tab was actually really accurate, I play these part different so that there is more of a Monkeys' sound

Thanks!

guest
You may want to rate the tab now too:
select rating
Wanna post a correction for this tab? Suggest correction