Oops, an error
Loading. Please wait.
We have an official Arabella tab made by UG professional guitarists. Check out the tab »
×

Arabella tab

version 3
version 3

Whole song

  • Includes a second guitar in place of a bass.
  • This version got the solo correction and also ther... Show more

Interactive

1,549 views 9 this week
no commentswrite comment
1 2 3 4 5
1 last vote to show rating
add to favorites
×
Save as Personal and add changes to this tab that will be seen only by you. Learn more ›
×
You can save this tab as Personal to edit and correct it or add notes. All changes will be seen only by you. Learn more »
launch autoscroll
font size
0
reset
how to read this tab
guitar tuner
backing track
0:00
0:00
edit
Autoscroll
slow
fast
+/-
esc
set tempo
stop
Difficulty
About this tab version
Includes a second guitar in place of a bass. Was this info helpful? Yes No
-------------------------------------------------------------------------------------------------------------
                                       Arabella - Arctic Monkeys
-------------------------------------------------------------------------------------------------------------


[Intro]

Guitar I
           P.M ------------
e|---------------5-----------|
B|---------5-7-8---8-7-5-----|
G|-/14~----------------------| x2
D|---------------------------|
A|---------------------------| 
E|---------------------------|

Guitar II
e|------|---------------------------|
B|------|---------------------------|
G|------|---------------------------|
D|--2-2-|--2-2---7-7---5-5---7-2-2--| x4
A|--2-2-|--2-2---7-7---5-5---7-2-2--| 
E|--0-0-|--0-0---5-5---3-3---5-0-0--|


[Verse 1]

Guitar I
     P.M -----------
e|---------5-----------|
B|---5-7-8---8-7-5-----|
G|---------------------| x2
D|---------------------|
A|---------------------| 
E|---------------------|

Guitar II
e|---------------------------|
B|---------------------------|
G|---------------------------|
D|--2-2---7-7---5-5---7-2-2--|
A|--2-2---7-7---5-5---7-2-2--| x 5
E|--0-0---5-5---3-3---5-0-0--|


[Pre-Chorus]

Both
e|-----------|-------|     
B|-----------|-------|     
G|-7-9-------|---7-9-|      
D|-7-9--7--5-|x3-7-9-|   
A|-5-7--7--5-|---5-7-|     
E|------5--3-|-------| 


[Chorus 1]
    
Both
e|------------------------------------------|
B|------------------------------------------|
G|----------7-------9-------7-------11------|
D|-----7-9--5--7-9--7--7-9--5--7-9---9------| x 4
A|-----5-7-----5-7-----5-7-----5-7----------|
E|------------------------------------------|


[Verse 2]

Guitar I
     P.M -----------
e|---------5-----------|
B|---5-7-8---8-7-5-----|
G|---------------------| x2
D|---------------------|
A|---------------------| 
E|---------------------|

Guitar II
e|---------------------------|
B|---------------------------|
G|---------------------------|
D|--2-2---7-7---5-5---7-2-2--|
A|--2-2---7-7---5-5---7-2-2--| x 5
E|--0-0---5-5---3-3---5-0-0--|


[Pre-Chorus]

Both
e|-----------|-------|     
B|-----------|-------|     
G|-7-9-------|---7-9-|      
D|-7-9--7--5-|x3-7-9-|   
A|-5-7--7--5-|---5-7-|     
E|------5--3-|-------| 


[Chorus 2]
    
Both
e|------------------------------------------|
B|------------------------------------------|
G|----------7-------9-------7-------11------|
D|-----7-9--5--7-9--7--7-9--5--7-9---9------| x 4
A|-----5-7-----5-7-----5-7-----5-7----------|
E|------------------------------------------|


[Bridge]

Both
e|----------------------------------------------------------------|
B|----------------------------------------------------------------|
G|-24-5-----------------------5-----------5-----7-----8-----------| 
D|-24-5(x8)-7-----2-----5-----5(x8)-7-----5(x8)-7(x4)-8(x4)-------|
A|-02-3-----7(x8)-2(x8)-5(x8)-3-----7(x8)-3-----5-----6-----------| 
E|----------5-----0-----3-----------5-----------------------------|


[Solo]

Haven't been able to tab the solo yet, sorry!


[Chorus 3]
    
Both
e|------------------------------------------|
B|------------------------------------------|
G|----------7-------9-------7-------11------|
D|-----7-9--5--7-9--7--7-9--5--7-9---9------|
A|-----5-7-----5-7-----5-7-----5-7----------|
E|------------------------------------------|

Ends with
e|------|
B|------|
G|--7-9-|
D|--7-9-|
A|--5-7-|
E|------|

************************************

| x   Dead note
| h   Hammer-on
| p   Pull-off
| r   Release
| b   Bend
| /   Slide up
| ~   Vibrato
| PM  Palm mute

************************************

            
            
Suggest correction
Creating personal tab
Creating personal tab
You can edit any tab online and save it as your Personal.

You can edit, replace or remove any tab part or add personal notes – all changes will be seen only by you.

Personal tabs can be accessed anytime from any device, even offline.
Learn more »
Give kudos to tab author, rate the tab!
1 2 3 4 5
comments
print report bad tab
guest
Wanna post a correction for this tab? Suggest correction