Oops, an error
Loading. Please wait.
We have an official Arabella tab made by UG professional guitarists. Check out the tab »
×

Arabella tab

version 4
version 4

Whole song

  • Includes a second guitar in place of a bass.
  • This version got the solo correction and also ther... Show more

Interactive

1,543 views 60 this week
no commentswrite comment
1 2 3 4 5
x 3
add to favorites
×
Save as Personal and add changes to this tab that will be seen only by you. Learn more ›
×
You can save this tab as Personal to edit and correct it or add notes. All changes will be seen only by you. Learn more »
launch autoscroll
font size
0
reset
how to read this tab
guitar tuner
backing track
0:00
0:00
edit
Autoscroll
slow
fast
+/-
esc
set tempo
stop
Author
Difficulty
About this tab version
This version got the solo correction and also there a option part to play for live version. Was this info helpful? Yes No
Hi everyone! this is my version of the tab, i tried to do it in the way that Jamie and Alex plays in the live
version, so i hope you like, i had check many versions of youtube video, so i can say this is they way they
play, cheers and thank you!


[Intro]

          P.M.------------
E|------------------------|
B|-----------7-8-10-8-7---|
G|-/14~----9------------9-| x2
D|------------------------|
A|------------------------|
E|------------------------|

[Verse]

Arabella's got some interstellar-gator skin boots

    P.M.------------
E|------------------|
B|-----7-8-10-8-7---|
G|---9------------9-|
D|------------------|
A|------------------|
E|------------------|
And a helter skelter 'round her little finger and I ride it endlessly
She's got a Barbarella silver swimsuit

    P.M.------------
E|------------------|
B|-----7-8-10-8-7---|
G|---9------------9-|
D|------------------|
A|------------------|
E|------------------|

And when she needs to shelter from reality she takes a dip in my daydreams




[Pre-Chorus]

My days end best when this sunset gets itself

E|------------------|
B|------------------|
G|------------------|
D|-12---14----7---5-|
A|-12---14----7---5-|
E|-10---12----5---3-|

Behind that little lady sitting on the passenger side

E|------------------|
B|------------------|
G|------------------|
D|-12---14----7---5-|
A|-12---14----7---5-|
E|-10---12----5---3-|

It's much less picturesque without her catching the light

E|------------------|
B|------------------|
G|------------------|
D|-12---14----7---5-|
A|-12---14----7---5-|
E|-10---12----5---3-|

The horizon tries but it's just not as kind on the eyes

E|----------|
B|----------|
G|----------|
D|-12---14--|
A|-12---14--|
E|-10---12--|

[Chorus]

As Arabella

E|-----------------------------------------------------|
B|-----------------------------------------------------|
G|-----------------------------------------------------|
D|-12---14---5---12---14---7---12---14---5---5-------9-|
A|-12---14---5---12---14---7---12---14---5---5---7---9-|
E|-10---12---3---10---12---5---10---12---3---3---0---7-|

As Arabella

E|-----------------------------------------------------|
B|-----------------------------------------------------|
G|-----------------------------------------------------|
D|-12---14---5---12---14---7---12---14---5---5-------9-|
A|-12---14---5---12---14---7---12---14---5---5---7---9-|
E|-10---12---3---10---12---5---10---12---3---3---0---7-|

Just might have tapped into your mind and soul

E|-----------------------------------------------------|
B|-----------------------------------------------------|
G|-----------------------------------------------------|
D|-12---14---5---12---14---7---12---14---5---5-------9-|
A|-12---14---5---12---14---7---12---14---5---5---7---9-|
E|-10---12---3---10---12---5---10---12---3---3---0---7-|

You can't be sure

E|-----------------------------------------------------|
B|-----------------------------------------------------|
G|-----------------------------------------------------|
D|-12---14---5---12---14---7---12---14---5---5-------9-|
A|-12---14---5---12---14---7---12---14---5---5---7---9-|
E|-10---12---3---10---12---5---10---12---3---3---0---7-|


[Interlude]

    P.M.------------
E|------------------|
B|-----7-8-10-8-7---|
G|---9------------9-|
D|------------------|
A|------------------|
E|------------------|


[Verse]

Arabella's got a seventies head but she's a modern lover
    P.M.------------
E|------------------|
B|-----7-8-10-8-7---|
G|---9------------9-|
D|------------------|
A|------------------|
E|------------------|

It's an exploration, she's made of outer space
And her lips are like the galaxy's edge

    P.M.------------
E|------------------|
B|-----7-8-10-8-7---|
G|---9------------9-|
D|------------------|
A|------------------|
E|------------------|

And her kiss the colour of a constellation falling into place

[Pre-Chorus]

My days end best when this sunset gets itself

E|------------------|
B|------------------|
G|------------------|
D|-12---14----7---5-|
A|-12---14----7---5-|
E|-10---12----5---3-|

Behind that little lady sitting on the passenger side

E|------------------|
B|------------------|
G|------------------|
D|-12---14----7---5-|
A|-12---14----7---5-|
E|-10---12----5---3-|

It's much less picturesque without her catching the light

E|------------------|
B|------------------|
G|------------------|
D|-12---14----7---5-|
A|-12---14----7---5-|
E|-10---12----5---3-|

The horizon tries but it's just not as kind on the eyes

E|----------|
B|----------|
G|----------|
D|-12---14--|
A|-12---14--|
E|-10---12--|

[Chorus]

As Arabella

E|-----------------------------------------------------|
B|-----------------------------------------------------|
G|-----------------------------------------------------|
D|-12---14---5---12---14---7---12---14---5---5-------9-|
A|-12---14---5---12---14---7---12---14---5---5---7---9-|
E|-10---12---3---10---12---5---10---12---3---3---0---7-|

As Arabella

E|-----------------------------------------------------|
B|-----------------------------------------------------|
G|-----------------------------------------------------|
D|-12---14---5---12---14---7---12---14---5---5-------9-|
A|-12---14---5---12---14---7---12---14---5---5---7---9-|
E|-10---12---3---10---12---5---10---12---3---3---0---7-|

Just might have tapped into your mind and soul

E|-----------------------------------------------------|
B|-----------------------------------------------------|
G|-----------------------------------------------------|
D|-12---14---5---12---14---7---12---14---5---5-------9-|
A|-12---14---5---12---14---7---12---14---5---5---7---9-|
E|-10---12---3---10---12---5---10---12---3---3---0---7-|

You can't be sure

E|------------------------------------------------------------|
B|------------------------------------------------------------|
G|------------------------------------------------------------|
D|-12---14---5---12---14---7---12---14---5---5-------7-9-10---|
A|-12---14---5---12---14---7---12---14---5---5---7---7-9-10---|
E|-10---12---3---10---12---5---10---12---3---3---0---5-7-8----|


[Bridge]

   That's magic in a cheetah print coat

E|------------------------------------|
B|------------------------------------|
G|------------------------------------|
D|-10------------------------------7--|
A|-10------------------------------7--|
E|-8-------------------------------5--|

   Just a slip underneath it I hope

E|----------------------------------|
B|----------------------------------|
G|----------------------------------|
D|-7--------------------------------|
A|-7----------------------------7---|
E|-5----------------------------0---|

   Asking if I can have one of those

E|--------------------------------|
B|--------------------------------|
G|--------------------------------|
D|------------------------------5-|
A|-7----------------------------5-|
E|-0----------------------------3-|

   Organic cigarettes that she smokes

E|---------------------------------|
B|---------------------------------|
G|---------------------------------|
D|-5----------------------------10-|
A|-5----------------------------10-|
E|-3----------------------------8--|

   Wraps her lips round the Mexican coke

E|-------------------------------------|
B|-------------------------------------|
G|-------------------------------------|
D|-10--------------------------------7-|
A|-10--------------------------------7-|
E|-8---------------------------------5-|

   Makes you wish that you were the bottle

E|-------------------------------------|
B|-------------------------------------|
G|-------------------------------------|
D|-7--------------------------------10-|
A|-7--------------------------------10-|
E|-5--------------------------------8--|

   Takes a sip of your soul and it sounds like…

E|--------------------------------------|
B|--------------------------------------|
G|--------------------------------------|
D|-10------------------12-----------13--|
A|-10------------------12-----------13--|
E|-8-------------------10-----------11--|

[Pre-Solo]

Jamie play something like War Pigs from Black Sabbath while Alex grab his guitar for the guitar solo


E |-----------------------------|
B |--------------------------8b-|
G |---------12-11-10----9-------|
D |-12-14---12-11-10----9-------|
A |-12-14---10-9--8-----7-------|
E |-10-12-----------------------|

E |-----------------------------------------|
B |-----------------------------------------|
G |---------12-11-10----9-------------------|
D |-12-14---12-11-10----9---12h14p12h14p12--|
A |-12-14---10-9--8-----7-------------------|
E |-10-12-----------------------------------|

E |-----------------------------|
B |--------------------------8b-|
G |---------12-11-10----9-------|
D |-12-14---12-11-10----9-------|
A |-12-14---10-9--8-----7-------|
E |-10-12-----------------------|

E |-------------------------|
B |-------------------------|
G |---------12-11-10----9---|
D |-12-14---12-11-10----9---|
A |-12-14---10-9--8-----7---|
E |-10-12-------------------|

[Solo]

Jamie

E|-----------------------------------------------------|
B|-----------------------------------------------------|
G|-----------------------------------------------------|
D|-12---14---5---12---14---7---12---14---5---5-------9-| x2
A|-12---14---5---12---14---7---12---14---5---5---7---9-|
E|-10---12---3---10---12---5---10---12---3---3---0---7-|

Alex

e|-------------------------------------------------------------|
B|-10b12p8---10b12p8---10b12p8---10b12p8---10b12p8---10b12p8---|
G|---------9---------9---------9---------9---------9---------9-|
D|-------------------------------------------------------------|
A|-------------------------------------------------------------|
E|-------------------------------------------------------------|


e|-------------------------------------|
B|-8h10-8~------8h10b12-10--8h10p8-----|
G|----------7h9----------------------9-|
D|-------------------------------------|
A|-------------------------------------|
E|-------------------------------------|


e|--------------------------------------------------------|
B|---------8h10b12-10--8h10-/-15--10/12\-10--10-10-10-8---|
G|-----7h9----------------------------------------------9-|
D|-7h9----------------------------------------------------|
A|--------------------------------------------------------|
E|--------------------------------------------------------|

[Chorus]

Just might have tapped into your mind and soul

E|-----------------------------------------------------|
B|-----------------------------------------------------|
G|-----------------------------------------------------|
D|-12---14---5---12---14---7---12---14---5---5-------9-|
A|-12---14---5---12---14---7---12---14---5---5---7---9-|
E|-10---12---3---10---12---5---10---12---3---3---0---7-|

You can't be sure

Jamie

E|-----------------------------------------------------|
B|-----------------------------------------------------|
G|-----------------------------------------------------|
D|-12---14---5---12---14---7---12---14---5---5-------9-|
A|-12---14---5---12---14---7---12---14---5---5---7---9-|
E|-10---12---3---10---12---5---10---12---3---3---0---7-|

Alex

e|-----------------------------------------------------|
B|-----------------------------------------------------|
G|-----------------------------------------------------|
D|-----------5-------------7-------------5---5---------|
A|-5----7--7-----5----7--7-----5----7--7---------7-----|
E|---------------------------------------------------7-|

End

Jamie

E|-------|
B|-------|
G|-------|
D|-12-14-|
A|-12-14-|
E|-10-12-|

Alex

E|-------|
B|-------|
G|-------|
D|-------|
A|-5--7--|
E|-------|


| /  slide up
| \  slide down
| h  hammer-on
| p  pull-off
| ~  vibrato
| P.M. Palm Mute
| x  Mute note






Suggest correction
Creating personal tab
Creating personal tab
You can edit any tab online and save it as your Personal.

You can edit, replace or remove any tab part or add personal notes – all changes will be seen only by you.

Personal tabs can be accessed anytime from any device, even offline.
Learn more »
Give kudos to tab author, rate the tab!
1 2 3 4 5
comments
print report bad tab
guest
You may want to rate the tab now too:
select rating
Wanna post a correction for this tab? Suggest correction