Oops, an error
Loading. Please wait.

Baby Im Yours Bass Tab

version 1
version 1

Whole song

Interactive

6,982 views 6 this week
1 commentread comment
1 2 3 4 5
accurate
x 6
add to favorites
launch autoscroll
font size
0
reset
guitar tuner
Tab Pro tools
  • play this tab
  • loop segment
  • change instrument
  • show fretboard
  • metronome
×
Best way to learn
"Baby Im Yours"
Autoscroll
slow
fast
+/-
esc
set tempo
stop
Contributor
Difficulty
novice
G|-----------------------------------------------------------|
D|----------------2--2-2--------------------------2--2-2-----|
A|5--5-5--2--2-2----------0--0-0--5--5-5--2--2-2----------0--|
E|-----------------------------------------------------------|

Baby I'm yours...
G|--------------------------------|
D|--------------------------------|
A|5--5-5--2--2-2----------0--0-0--|x2
E|----------------0--0-0----------|

G|---------------------------|
D|---------------------------|
A|------------------------0--|
E|3--3-3--1--1-1--0--0-0-----|

Baby I'm yours...
G|--------------------------------|
D|--------------------------------|
A|5--5-5--2--2-2----------0--0-0--|x2
E|----------------0--0-0----------|

G|---------------------------|
D|---------------------------|
A|------------------------0--|
E|3--3-3--1--1-1--0--0-0-----|

I'm gonna stay right here...
G|-------------------------------------------------------------------|
D|-------------------------------------------------------------------|
A|-------------------------------------------------------------------|
E|3-1--0--3-1--0--1--1-1--1--1-1--3--3-3--3--3-3--5--5-5--5--5-5--5--|

Baby I'm yours...
G|--------------------------------|
D|----------------2--2-2----------|
A|5--5-5--2--2-2----------0--0-0--|x2
E|--------------------------------|

G|--------------------------------|
D|--------------------------------|
A|------------------------0--0-0--|
E|3--3-3--1--1-1--0--0-0----------|

G|--------------------------------|
D|----------------2--2-2----------|
A|5--5-5--2--2-2----------0--0-0--|Play 'til the end
E|--------------------------------|
comments
print report bad tab
1 comment total.
0 reply
5sosfam wrote on April 27 2016, 06:01 pm

I feel like it should be played like this:

Baby I'm yours...
G|--------------------------------|
D|--------------------------------|
A|5--5-5--2--2-2----------0--0-0--|x2
E|----------------0--0-0----------|

G|---------------------------|
D|---------------------------|
A|------------------------0--|
E|3--3-3--2--2-2--0--0-0-----|

I'm gonna stay right here...
G|-------------------------------------------------------------------|
D|-------------------------------------------------------------------|
A|-------------------------------------------------------------------|
E|3-2--0--3-2--0--2--2-2--2--2-2--3--3-3--3--3-3--5--5-5--5--5-5--5--|

I want to post or [tab]
guest
You may want to rate the tab now too:
select rating
Please do not post tabs as comments. Select "correction" instead!