Oops, an error
Loading. Please wait.
We have an official Baby Im Yours tab made by UG professional guitarists. Check out the tab »
×

Baby Im Yours bass

version 2
version 2

Whole song

  • The first version didn't have the right notes for ... Show more

Interactive

25 views 1 this week
no commentswrite comment
1 2 3 4 5
3 more votes to show rating
add to favorites
×
Save as Personal and add changes to this tab that will be seen only by you. Learn more ›
×
You can save this tab as Personal to edit and correct it or add notes. All changes will be seen only by you. Learn more »
launch autoscroll
font size
0
reset
guitar tuner
edit
Autoscroll
slow
fast
+/-
esc
set tempo
stop
About this tab version
The first version didn't have the right notes for the chorus and parts of the verses. Was this info helpful? Yes No
[Intro]

G|-----------------------------------------------------------|
D|----------------2--2-2--------------------------2--2-2-----|
A|5--5-5--2--2-2----------0--0-0--5--5-5--2--2-2----------0--|
E|-----------------------------------------------------------|

[Verse 1]

G|--------------------------------|
D|--------------------------------|
A|5--5-5--2--2-2----------0--0-0--
E|----------------0--0-0----------|

G|---------------------------|
D|---------------------------|
A|------------------------0--|
E|3--3-3--2--2-2--0--0-0-----|

[Verse 2]

G|--------------------------------|
D|--------------------------------|
A|5--5-5--2--2-2----------0--0-0--|x2
E|----------------0--0-0----------|

G|---------------------------|
D|---------------------------|
A|------------------------0--|
E|3--3-3--2--2-2--0--0-0-----|

[Chorus]

G|-------------------------------------------------------------------|
D|-------------------------------------------------------------------|
A|-------------------------------------------------------------------|
E|3-2--0--3-2--0--2--2-2--2--2-2--3--3-3--3--3-3--5--5-5--5--5-5--5--|

[Verse 3]

G|--------------------------------|
D|--------------------------------|
A|5--5-5--2--2-2----------0--0-0--|
E|----------------0--0-0----------|

G|---------------------------|
D|---------------------------|
A|------------------------0--|
E|3--3-3--2--2-2--0--0-0-----|

G|--------------------------------|
D|--------------------------------|
A|5--5-5--2--2-2----------0--0-0--|
E|----------------0--0-0----------|


Lyrics:

Baby, I'm yours (Baby, I'm yours) 
And I'll be yours until the stars fall from the sky, 
Yours, until the rivers all run dry 
In other words, until I die 


Baby, I'm yours (Baby, I'm yours) 
And I'll be yours until the sun no longer shines, 
Yours, until the poets run out of rhyme 
In other words, until the end of time 


I'm gonna stay right here by your side, 
Do my best to keep you satisfied 
Nothin' in the world could drive me away 
'Cause every day, you'll hear me say 

Baby, I'm yours (Baby, I'm yours) 
And I'll be yours until two and two is three, 
Yours, until the mountains crumble to the sea 
In other words, until eternity 

Baby, I'm yours 
(Til the stars fall from the sky) 
Baby, I'm yours 
(Til the rivers all run dry) 
Baby, I'm yours 
(Til the sun no longer shines) 
Baby, I'm yours 
(Til the poets run out of rhymes)


            
            
Suggest correction
Creating personal tab
Creating personal tab
You can edit any tab online and save it as your Personal.

You can edit, replace or remove any tab part or add personal notes – all changes will be seen only by you.

Personal tabs can be accessed anytime from any device, even offline.
Learn more »
Give kudos to tab author, rate the tab!
1 2 3 4 5
comments
print report bad tab
guest
You may want to rate the tab now too:
select rating
Wanna post a correction for this tab? Suggest correction