Oops, an error
Loading. Please wait.

Bad Woman Bass Tab

version 1
version 1

Whole song

Interactive

1,763 views 1 this week
no commentswrite comment
1 2 3 4 5
please rate
add to favorites
launch autoscroll
font size
0
reset
guitar tuner
Autoscroll
slow
fast
+/-
esc
set tempo
stop
Help us to improve Ultimate-Guitar.com Take our survey!
×
Author
Difficulty
novice
Bad Woman, from Arctic Monkeys' Teddy Picker single

Intro
G|-------------|
D|-------------|
A|-------2-0---|
E|-0030------3-| 4x

G|---------------------------------------|
D|---------------------------------------|
A|---------------------------------2-0---|
E|-7777777-55555555-33333333-0-0-------3-|

Verse 1
G|-------------|
D|-------------|
A|-------2-0---|
E|-0030------3-| 6x

G|---------------------------------------|
D|---------------------------------------|
A|---------------------------------2-0---|
E|-7777777-55555555-33333333-0-0-------3-|

Bridge
G|-------------|
D|-------------|
A|-------2-0---|
E|-0030------3-| 4x

Verse 2
G|-------------|
D|-------------|
A|-------2-0---|
E|-0030------3-| 6x

G|---------------------------------------|
D|---------------------------------------|
A|---------------------------------2-0---|
E|-7777777-55555555-33333333-0-0-------3-|

Chorus
G|---------------------------------------|
D|---------------------------------------|
A|---------------------------------------|
E|-7777777-55555555-3333333333333333-----|

G|---------------------------------------|
D|---------------------------------------|
A|---------------------------------2-0---|
E|-7777777-55555555-33333333-0-0-------3-|

Interlude (after drums)
G|-------------|
D|-------------|
A|-------------|
E|-7-5-3-0-----| 2x

Verse 3
G|-------------|
D|-------------|
A|-------2-0---|
E|-0030------3-| 6x

G|---------------------------------------|
D|---------------------------------------|
A|---------------------------------2-0---|
E|-7777777-55555555-33333333-0-0-------3-|

Chorus/Ending
G|---------------------------------------|
D|---------------------------------------|
A|---------------------------------------| 
E|-7777777-55555555-3333333333333333-----| 3x

G|---------------------------------------|
D|---------------------------------------|
A|---------------------------------------|
E|-7777777-55555555-3-3------------------|

Suggest correction
What's this?
You can suggest a correction to this tab. Community and Mods will review your correction and vote to approve or reject it.
comments
We did not receive enough feedback on this tab! Please rate:
print report bad tab
1 2 3 4 5
guest
You may want to rate the tab now too:
select rating
Please do not post tabs as comments. Select "correction" instead!