Oops, an error
Loading. Please wait.

Bakery Bass Tab

version 1
version 1

Whole song

Interactive

2,588 views 1 this week
2 commentsread comments
1 2 3 4 5
accurate
x 3
add to favorites
launch autoscroll
font size
0
reset
guitar tuner
Autoscroll
slow
fast
+/-
esc
set tempo
stop
Help us to improve Ultimate-Guitar.com Take our survey!
×
Author
Difficulty
intermediate
G|---------------------------------------------------------|
D|---------------------------------------------------------|
A|----------------------------9-9---9-9-9---9-9---11-9-----|
E|5-5---5-5-5---9-9---9-9-9----------------------------11--|

G|------------------------------------------------------|
D|------------------------------------------------------|
A|2-2---2-2-2--2-2---2-2-2---5-5---5-5-5--5-5---5-5-5\--|
E|------------------------------------------------------|

Verse:
G|---------------------------------------------------------|
D|---------------------------------------------------------|
A|----------------------------9-9---9-9-9---9-9---11-9-----|
E|5-5---5-5-5---9-9---9-9-9----------------------------11--|\
                                                             x2
G|------------------------------------------------------|   /
D|------------------------------------------------------|  /
A|2-2---2-2-2--2-2---2-2-2---5-5---5-5-5--5-5---5-5-5\--| /
E|------------------------------------------------------|/

Bridge1:
G|----------------------------------------------------|
D|----------------------------------------------------|
A|4-4---4-4-4--4-4---4-4-4--2-2---2-2-2--2-2---2-2-2--|
E|----------------------------------------------------|

G|----------------|
D|7~--7~--7~--7~--|
A|----------------|
E|----------------|

Verse:
G|---------------------------------------------------------|
D|---------------------------------------------------------|
A|----------------------------9-9---9-9-9---9-9---11-9-----|
E|5-5---5-5-5---9-9---9-9-9----------------------------11--|
                                                             
G|------------------------------------------------------|   
D|------------------------------------------------------|  
A|2-2---2-2-2--2-2---2-2-2---5-5---5-5-5--5-5---5-5-5\--| 
E|------------------------------------------------------|

G|-----------------------------------------------|
D|----------7-5----------------------------------|
A|--------------7-5----9-9-----------------------|
E|5-5---5-5---------8--------2-2-2--2-2---2-2-2--|

G|-------------------------------------------|   
D|-------------------------------------------|  
A|2-2---2-2-2--2-2---2-2-2---5--5-5--5--5-5--| 
E|-------------------------------------------|

Bridge2:
G|---------------------------------------------------------|
D|---------------------------------------------------------|
A|----------------------------9-9---9-9-9---9-9---11-9-----|
E|5-5---5-5-5---9-9---9-9-9----------------------------11--|
                                                             
G|------------------------------------------------------|   
D|------------------------------------------------------|  
A|2-2---2-2-2--2-2---2-2-2---5-5---5-5-5--5-5---5-5-5\--| 
E|------------------------------------------------------|

G|----------------------------------------------------|
D|----------------------------------------------------|
A|4-4---4-4-4--4-4---4-4-4--2-2---2-2-2--2-2---2-2-2--|
E|----------------------------------------------------|

G|------------------------------------------|
D|7-7---7-7-7--7-7---7-7-7--7--7-7--7--7-7--|
A|------------------------------------------|
E|------------------------------------------|

Verse:
G|---------------------------------------------------------|
D|---------------------------------------------------------|
A|----------------------------9-9---9-9-9---9-9---11-9-----|
E|5-5---5-5-5---9-9---9-9-9----------------------------11--|\
                                                             x2
G|------------------------------------------------------|   /
D|------------------------------------------------------|  /
A|2-2---2-2-2--2-2---2-2-2---5-5---5-5-5--5-5---5-5-5\--| /
E|------------------------------------------------------|/

Bridge3:
G|---------------------------------------------|
D|----------------9--9-9--9--11-9--------------|
A|4--4-4--9--9-9------------------11-----------|
E|------------------------------------7~--10~--|

G|-----------------------|
D|-----------------------|
A|-----------------------|
E|5~--\2~--10~--\1~--5~--|
Suggest correction
Give kudos to tab author, rate the tab!
1 2 3 4 5
comments
print report bad tab
2 comments total.
+1 reply
kainofu 10 wrote on September 6 2014, 02:20 pm

rocking tab man! i feel like the 11 in the verses should be a 12 instead, I played with the actual song and it sounded better.

0 reply
IndieJoe 1,997 wrote on September 9 2014, 10:53 am

Thanks for the polite advice, man! I'll correct it now

guest
You may want to rate the tab now too:
select rating
Please do not post tabs as comments. Select "correction" instead!