Oops, an error
Loading. Please wait.

Bakery Tab

version 2
version 2

Whole song

Interactive

31,304 views 21 this week
1 commentread comment
1 2 3 4 5
x 8
add to favorites
launch autoscroll
font size
0
reset
how to read this tab
guitar tuner
Autoscroll
slow
fast
+/-
esc
set tempo
stop
Help us to improve Ultimate-Guitar.com Take our survey!
×
Author
Difficulty
intermediate
Title   ---The Bakery---
Artist  -Arctic Monkeys-
Tabbed  --Dayle Hobson--   Email dayleh AT blueyonder.co.uk
Tuning  ----Standard----


THE BAKERY - ARCTIC MONKEYS

----------------------------------------------------------------------
RHYTHM
----------------------------------------------------------------------

______________________
oo   Intro Rhythm   oo
¯¯¯¯¯¯¯¯¯¯¯¯¯¯¯¯¯¯¯¯¯¯

e|-5--|-4----------------|-9------|-2-----------------------5-|
B|-5--|-5----------------|-10-----|-3-----------------------6-|
G|-6--|-6----------------|-11-----|-4-----------------------7-|   
D|-7--|-6----------------|-11-----|-4-----------------------7-|
A|-7--|-4----------------|-9------|-2-----------------------5-|
E|-5--|------------------|--------|---------------------------|


__________________________
oo   Verse One Rhythm   oo
¯¯¯¯¯¯¯¯¯¯¯¯¯¯¯¯¯¯¯¯¯¯¯¯¯¯

e|-5--|-4----------------|-9------|-2-----------------------5-|
B|-5--|-5----------------|-10-----|-3-----------------------6-|
G|-6--|-6----------------|-11-----|-4-----------------------7-|   
D|-7--|-6----------------|-11-----|-4-----------------------7-| x 2
A|-7--|-4----------------|-9------|-2-----------------------5-|
E|-5--|------------------|--------|---------------------------|

_______________________
oo   ?????? Rhythm   oo
¯¯¯¯¯¯¯¯¯¯¯¯¯¯¯¯¯¯¯¯¯¯¯
                   ALTERNATIVE
e|-4--|-2-|-1-|-5-|-10-|-13-----------------------------------|
B|-5--|-3-|-3-|-6-|-10-|-15-----------------------------------|
G|-6--|-4-|-2-|-7-|-10-|-14-----------------------------------|
D|-6--|-4-|---|-7-|----|--------------------------------------|
A|-4--|-2-|---|---|----|--------------------------------------|
E|----|---|---|---|----|--------------------------------------|


__________________________
oo   Verse Two Rhythm   oo
¯¯¯¯¯¯¯¯¯¯¯¯¯¯¯¯¯¯¯¯¯¯¯¯¯¯

e|-5--|-4----------------|-9------|-2-----------------------5-|
B|-5--|-5----------------|-10-----|-3-----------------------6-|
G|-6--|-6----------------|-11-----|-4-----------------------7-|   
D|-7--|-6----------------|-11-----|-4-----------------------7-| x 2
A|-7--|-4----------------|-9------|-2-----------------------5-|
E|-5--|------------------|--------|---------------------------|


__________________________
oo   Chorus??? Rhythm   oo
¯¯¯¯¯¯¯¯¯¯¯¯¯¯¯¯¯¯¯¯¯¯¯¯¯¯

e|-5--|-4----------------|-9------|-2-----------------------5-|
B|-5--|-5----------------|-10-----|-3-----------------------6-|
G|-6--|-6----------------|-11-----|-4-----------------------7-|   
D|-7--|-6----------------|-11-----|-4-----------------------7-|
A|-7--|-4----------------|-9------|-2-----------------------5-|
E|-5--|------------------|--------|---------------------------|

                   ALTERNATIVE
e|-4--|-2-|-1-|-5-|-10-|-13-----------------------------------|
B|-5--|-3-|-3-|-6-|-10-|-15-----------------------------------|
G|-6--|-4-|-2-|-7-|-10-|-14-----------------------------------|
D|-6--|-4-|---|-7-|----|--------------------------------------|
A|-4--|-2-|---|---|----|--------------------------------------|
E|----|---|---|---|----|--------------------------------------|


____________________________
oo   Verse Three Rhythm   oo
¯¯¯¯¯¯¯¯¯¯¯¯¯¯¯¯¯¯¯¯¯¯¯¯¯¯¯¯

e|-5--|------------------|--------|-------------------------5-|
B|-5--|------------------|--------|-------------------------6-|
G|-6--|------------------|--------|-------------------------7-|   
D|-7--|------------------|--------|-------------------------7-|
A|-7--|------------------|--------|-------------------------5-|
E|-5--|------------------|--------|---------------------------|


e|-5--|-4----------------|-9------|-2-----------------------5-|
B|-5--|-5----------------|-10-----|-3-----------------------6-|
G|-6--|-6----------------|-11-----|-4-----------------------7-|   
D|-7--|-6----------------|-11-----|-4-----------------------7-|
A|-7--|-4----------------|-9------|-2-----------------------5-|
E|-5--|------------------|--------|---------------------------|


______________________
oo   Outro Rhythm   oo
¯¯¯¯¯¯¯¯¯¯¯¯¯¯¯¯¯¯¯¯¯¯

e|-5--|-2----------------|-5------|-1-----------------------5-|
B|-5--|-2----------------|-6------|-1-----------------------5-|
G|-6--|-2----------------|-7------|-2-----------------------6-|   
D|-7--|-4----------------|-7------|-3-----------------------7-|
A|-7--|-4----------------|-5------|-3-----------------------7-|
E|-5--|-2----------------|--------|-1-----------------------5-|




| /  slide up
| \  slide down
| h  hammer-on
| p  pull-off
| ~  vibrato
| +  harmonic
| x  Mute note

----------------------------------------------------------------------
LEAD
----------------------------------------------------------------------

____________________
oo   Intro Lead   oo
¯¯¯¯¯¯¯¯¯¯¯¯¯¯¯¯¯¯¯¯

e|-----|----------------|---------|----------|---------------|
B|-----|----------------|---------|----------|---------------|
G|-----|----------------|---------|----------|---------------|
D|-----|-14p12-11-12----|---------|----------|-14-12\11-11-9-|
A|-12--|-------------12/|16-14-16-|-12/14-14-|---------------|
E|-----|----------------|---------|----------|---------------|

e|---------|
B|---------|
G|---------|
D|-9/12-11-|
A|---------|
E|---------|


________________________
oo   Verse One Lead   oo
¯¯¯¯¯¯¯¯¯¯¯¯¯¯¯¯¯¯¯¯¯¯¯¯

and the more you keep on...
e|-5--|-12-10-9-7-5-|-9-7-7-9-9-12-9-|-2-2---|-5-------7-|
B|-5--|-12-10-9-7-5-|-9-7-7-9-9-9--9-|-3-----|---6-----6-|
G|-6--|-------------|----------------|-4-----|-----7---7-|   
D|----|-------------|----------------|-4-----|-----------|
A|----|-------------|----------------|-2-----|-----------|
E|----|-------------|----------------|-------|-----------|


_____________________
oo   ?????? Lead   oo
¯¯¯¯¯¯¯¯¯¯¯¯¯¯¯¯¯¯¯¯¯
                   
e|-----------|-------------|--------|----------|----------|
B|-----------|-------------|-6-6/10-|-10-10/15-|-15-15/18-|
G|-6-6/9-9-9-|-4-2/4\2-4-2-|--------|----------|----------|
D|-----------|-------------|--------|----------|----------|
A|-----------|-------------|--------|----------|----------|
E|-----------|-------------|--------|----------|----------|

e|-------------------------|
B|-18-18-18-18-18-18-18-18-|
G|-------------------------|
D|-------------------------|
A|-------------------------|
E|-------------------------|


________________________
oo   Verse Two Lead   oo
¯¯¯¯¯¯¯¯¯¯¯¯¯¯¯¯¯¯¯¯¯¯¯¯

and the more you keep on...
e|-5--|-12-10-9-7-5-|-9-7-7-9-9-12-9-|-2--12-10-9-|-5-----5-7-5-----|
B|-5--|-12-10-9-7-5-|-9-7-7-9-9-9--9-|-3----------|---6---------6---|
G|-6--|-------------|----------------|-4----------|-----7---------7-|   
D|----|-------------|----------------|-4----------|-----------------|
A|----|-------------|----------------|-2----------|-----------------|
E|----|-------------|----------------|------------|-----------------|


________________________
oo   Chorus??? Lead   oo
¯¯¯¯¯¯¯¯¯¯¯¯¯¯¯¯¯¯¯¯¯¯¯¯

e|-----|----------------|---------|----------|-12-10\9-9-7-|
B|-----|----------------|---------|-10/12-12-|-------------|
G|-----|----------------|---------|----------|-------------|
D|-----|-14p12-11-12----|---------|----------|-------------|
A|-12--|-------------12/|16-14-16-|----------|-------------|
E|-----|----------------|---------|----------|-------------|

e|-7/10-10-9-|
B|-----------|
G|-----------|
D|-----------|
A|-----------|
E|-----------|


e|-----------|-------------|--------|----------|----------|
B|-----------|-------------|-6-6/10-|-10-10/15-|-15-15/18-|
G|-6-6/9-9-9-|-4-2/4\2-4-2-|--------|----------|----------|
D|-----------|-------------|--------|----------|----------|
A|-----------|-------------|--------|----------|----------|
E|-----------|-------------|--------|----------|----------|

e|-------------------------|
B|-18-18-18-18-18-18-18-17-|
G|-------------------------|
D|-------------------------|
A|-------------------------|
E|-------------------------|


____________________
oo   Outro Lead   oo
¯¯¯¯¯¯¯¯¯¯¯¯¯¯¯¯¯¯¯¯

e|---|-------|-------|---------|----------|
B|---|-------|-------|---------|----------|
G|---|-------|-4/7-7-|-7/10-10-|-10/12-12-|
D|-7-|-7\4-4-|-------|---------|----------|
A|---|-------|-------|---------|----------|
E|---|-------|-------|---------|----------|



| /  slide up
| \  slide down
| h  hammer-on
| p  pull-off
| ~  vibrato
| +  harmonic
| x  Mute note
Suggest correction
comments
print report bad tab
1 comment total.
0 reply
robsuj 92 Jun 04, 2009 03:02 PM

great tab! enjoyed it alot!

guest
You may want to rate the tab now too:
select rating
Wanna post a correction for this tab? Suggest correction