Oops, an error
Loading. Please wait.

Balaclava Bass Tab

version 1
version 1

Interactive

39,579 views 27 this week
7 commentsread comments
1 2 3 4 5
accurate
x 13
add to favorites
launch autoscroll
font size
0
reset
guitar tuner
Tab Pro tools
  • play this tab
  • loop segment
  • change instrument
  • show fretboard
  • metronome
×
Best way to learn
"Balaclava"
Autoscroll
slow
fast
+/-
esc
set tempo
stop
Difficulty
intermediate

Intro/Verse

G|----------------------------------------|
D|----------------------------------------|
A|----5-7-9---4---5----5-7-9---4---5------|
E|--7-------5---3----7-------5---3--------|


Alternate Verse

G|----------------------------------------|
D|--------------5-7----------------5-7----|
A|----5-7-9---4----------5-7-9---4--------|
E|--7-------5----------7-------5----------|


chorus, at least i think its the chorus

G|----------------------------------|
D|----------------------------------|
A|--------9-------------------------|
E|-7-7-7-----10-7-5-7--5-7--2-2-3-5-|

G|----------------------------------|
D|----------------------------------|
A|--------9-------------------------|
E|-7-7-7-----10-7--3-5-3-5--3-2-----|


Verse

G|----------------------------------------|
D|----------------------------------------|
A|----5-7-9---4---5----5-7-9---4---5------|
E|--7-------5---3----7-------5---3--------|


Middle Part

G|------------------------------------------|
D|------------------------------------------|
A|------------------------------------------|
E|--7777-7777-7777-7777-5555-5555-5555-5555-|

G|------------------------------------------|
D|------------------------------------------|
A|------------------------------------------|
E|--3333-333-2222-2222-7777-7777-7777-8888--|


G|------------------------------------------|
D|------------------------------------------|
A|------------------------------------------|
E|--7777-7777-7777-7777-5555-5555-5555-5555-|

G|------------------------------------------|
D|------------------------------------------|
A|------------------------------------------|
E|--3333-333-2222-2222-7--------------------|


chorus, at least i think its the chorus

G|----------------------------------|
D|----------------------------------|
A|--------9-------------------------|
E|-7-7-7-----10-7-5-7--5-7--2-2-3-5-|

G|----------------------------------|
D|----------------------------------|
A|--------9-------------------------|
E|-7-7-7-----10-7--3-5-3-5--3-2-----|


Verse

G|----------------------------------------|
D|----------------------------------------|
A|----5-7-9---4---5----5-7-9---4---5------|
E|--7-------5---3----7-------5---3--------|


Outro

G|-------------------|
D|-------------------|
A|----5---4---4---7--|
E|--7---0---5---3----|

comments
print report bad tab
7 comments total. Showing first comments.
0 reply
Potski wrote on April 25 2007, 03:10 pm

Not bad, wiht a few timing changes. The notes certainly sound similar

On the chorus I find an extra A before the two F# gives it a better ring, but that might be personal preference as I don't have the song to hand.

7/10

0 reply
JoshMysterio wrote on April 26 2007, 05:47 am

This is basically it, would just be nice if it was tabbed fully like mine that got rejected.

0 reply
clark j wrote on June 22 2007, 05:40 pm

on the outro, it goes from the e to a high f#, and a g to a d.

I want to post or [tab]
guest
You may want to rate the tab now too:
select rating
Please do not post tabs as comments. Select "correction" instead!