Oops, an error
Loading. Please wait.

Balaclava Bass Tab

version 2
version 2

Interactive

30,827 views 1 this week
no commentswrite comment
1 2 3 4 5
worth learning
x 7
add to favorites
launch autoscroll
font size
0
reset
guitar tuner
Tab Pro tools
  • play this tab
  • loop segment
  • change instrument
  • show fretboard
  • metronome
×
Best way to learn
"Balaclava"
Autoscroll
slow
fast
+/-
esc
set tempo
stop
  	 			Balaclava Bass Tab by Arctic Monkeys

Intro/Verse
G|--------------------------------------|
D|----0-2-4--------0-----0-2-4--------0-|
A|-2--------0--4------2--------0--4-----| x2
E|---------------3------------------3---|

Alternate Verse
G|---------------0-2----------------0-2-|
D|----0-2-4--------------0-2-4----------|
A|-2--------0--4------2--------0--4-----| x2
E|--------------------------------------|

chorus
G|----------------------------|
D|-------4-0------------------|
A|-2-2-2-----2--02-02-------0-|
E|--------------------2-2-3---|

G|------------------------|
D|-------4-0--------------|
A|-2-2-2-----2--02-02-----| X2
E|--------------------3-2-|

Verse
G|------0-2----------------0-2----------|
D|--------------0-2-4--------------0-2-4|
A|-0--4------2--------0--4------2-------| 
E|--------------------------------------|

G|------0-2----------------|
D|--------------0-2-4------|
A|-0--4------2--------0--4-| X1
E|-------------------------|

Middle Part
G|-----------------------------------------|
D|-----------------------------------------|
A|-2222-2222-2222-2222-0000-0000-0000-0000-|
E|-----------------------------------------|

G|----------------------------------------|
D|----------------------------------------|
A|--------------------2222-2222-2222-3333-|
E|-3333-3333-2222-2222--------------------|


G|-----------------------------------------|
D|-----------------------------------------|
A|-2222-2222-2222-2222-0000-0000-0000-0320-|
E|-----------------------------------------|

G|----------------------|
D|----------------------|
A|--------------------2-|  X1
E|-3333-3333-2222-2222--|

chorus
G|----------------------------|
D|-------4-0------------------|
A|-2-2-2-----2--02-02-------0-|
E|--------------------2-2-3---|

G|------------------------|
D|-------4-0--------------|
A|-2-2-2-----2--02-02-----| X2
E|--------------------3-2-|

Alternate Verse
G|---------------0-2----------------0-2-|
D|----0-2-4--------------0-2-4----------| 
A|-2--------0--4------2--------0--4-----|  X7
E|--------------------------------------|

Verse
G|--------------------------------------|
D|----0-2-4--------0-----0-2-4--------0-|
A|-2--------0--4------2--------0--4-----|  X5
E|---------------3------------------3---|

Tab by Jugge
comments
print report bad tab
I want to post or [tab]
guest
You may want to rate the tab now too:
select rating
Please do not post tabs as comments. Select "correction" instead!