Oops, an error
Loading. Please wait.

Balaclava Bass Tab

version 3
version 3

Interactive

1,682 views 3 this week
4 commentsread comments
1 2 3 4 5
worth learning
x 6
add to favorites
launch autoscroll
font size
0
reset
guitar tuner
Tab Pro tools
  • play this tab
  • loop segment
  • change instrument
  • show fretboard
  • metronome
×
Best way to learn
"Balaclava"
Autoscroll
slow
fast
+/-
esc
set tempo
stop
Contributor
Difficulty
intermediate
G|---------------|
D|---------------|
A|3-5-7-9-0-4--5-|
E|------------3--|  x4


G|---------------------------|
D|---------------------------|
A|33557799111113131111-------|
E|--------------------1313---|  x4

G|------------------------------------------------------------|
D|------------------------------------------------------------|
A|---9-7-----------------------7------9-7---------------------|x2
E|7-7----10--7-10-7-1010-7-7-10---777-----10--7-10-7-10-7-5~--|

Whether you're pulling her from a burning building or...
G|---------|
D|---------|
A|0044--55-|
E|----33---|

G|---------------------------|
D|---------------------------|
A|33557799111113131111-------|
E|--------------------1313---|  x2

G|--------------|
D|--------777-7-|
A|33557788------|
E|--------------|

That's Ri-ight...
G|------------------------------------------------------|
D|9999999999999999\7777777777777777\55555555\44444444---|
A|------------------------------------------------------|
E|------------------------------------------------------|

G|---11---11---11-12121212--|
D|/99--999--999--9----------|x2
A|--------------------------|
E|--------------------------|

G|---9---9---9----------------7-----------|
D|\77-777-777-77/1097--5555555-333333333--|
A|----------------------------------------|
E|----------------------------------------|

G|------------|
D|------------|
A|----9-7-----|
E|7-7-----10--|

G|------------------------------------------------|
D|------------------------------------------------|
A|-------------------7-----9-7--------------------|
E|7-10-7-1010-7-7-10---777-----10-7-10-7-10-7-5~--|

G|------------------------------------------------------------|
D|------------------------------------------------------------|
A|---9-7-----------------------7------9-7---------------------|
E|7-7----10--7-10-7-1010-7-7-10---777-----10--7-10-7-10-7-5~--|


G|---------------------------|
D|---------------------------|
A|33557799111113131111-------|
E|--------------------1313---|  x12

Outro:
G|-----------------|
D|-----------------|
A|---5---7---------|
E|0----0---5--7-0--|

G|-------------------|
D|-------------------|
A|7----5---7---------|x4
E|--7----0---5--7-0--|

G|------------|
D|------------|
A|7----5---7--|
E|--7----0----|

G|-----------------|
D|-----------------|
A|---5---7---------|
E|0----0---5--7-0--|

G|-------------------|
D|-------------------|
A|7----5---7---------|x3
E|--7----0---5--7-0--|

G|--------------|
D|--------------|
A|7----5---7----|
E|--7----0---x--|
comments
print report bad tab
4 comments total. Showing first comments.
0 reply
wesfield wrote on March 10 2009, 06:27 am

Wrong notes, what else can i say

-1 reply
Marcel117 wrote on April 22 2009, 06:09 am

Wrong notes and bad fingering, vers. 2 is way better.

0 reply
Pyradonis wrote on July 8 2009, 01:42 pm

..That´s false!

I want to post or [tab]
guest
You may want to rate the tab now too:
select rating
Please do not post tabs as comments. Select "correction" instead!