Oops, an error
Loading. Please wait.

Balaclava Bass Tab

version 4
version 4

Interactive

1,922 views 1 this week
no commentswrite comment
1 2 3 4 5
please rate
add to favorites
launch autoscroll
font size
0
reset
guitar tuner
Autoscroll
slow
fast
+/-
esc
set tempo
stop
Help us to improve Ultimate-Guitar.com Take our survey!
×
Difficulty
intermediate
INTRO

G|----------------\
D|---------------- \
A|-2-5-7-9-0-4---5 / X 8
E|-------------3--/

BRIDGE 1

G|--------------------\
D|----40-------------- \
A|-222--2----22220--05  \
E|----------------24--   \
                          - X 2
G|--------------------   /
D|-----40-------------  /
A|-2222--2----0000---- /
E|----------------32--/

VERSE

G|----------------\
D|---------------- \
A|-2-5-7-9-0-4---5 / X 4
E|-------------3--/

BRIDGE 2

G|------------------------------------------------------------|
D|9999999999999999-7777777777777777-55555555-44444444-99999999|
A|------------------------------------------------------------|
E|------------------------------------------------------------|

G|---------------------------------------------------|
D|9999999999999999-7777777777777777-55555555-44444444|
A|---------------------------------------------------|
E|---------------------------------------------------|

BRIDGE 1

G|--------------------\
D|----40-------------- \
A|-222--2----22220--05  \
E|----------------24--   \
                          - X 2
G|--------------------   /
D|-----40-------------  /
A|-2222--2----0000---- /
E|----------------32--/

VERSE


G|----------------\
D|---------------- \
A|-2-5-7-9-0-4---5 / X 12
E|-------------3--/

OUTRO

G|-----------------\
D|---0-2-4--------- \
A|-2-------0-4---5- / X10 
E|-------------3---/ 

(ON 6th TIME OF PLAYING OUTRO, BASS SHOULD BE PLAYED LIKE THIS:
G|-----------------|
D|---0-2-4---------|
A|-2---------------|
E|-----------------|
THEN PLAY THE OUTRO AS NORMAL ON THE 7th TIME)





This is only my first tab, pretty sure ita correct, may be a couple of sections on 
the bridges with a few mistakes, but as far as I know it sounds right when played. Enjoy!
Suggest correction
What's this?
You can suggest a correction to this tab. Community and Mods will review your correction and vote to approve or reject it.
comments
We did not receive enough feedback on this tab! Please rate:
print report bad tab
1 2 3 4 5
guest
You may want to rate the tab now too:
select rating
Please do not post tabs as comments. Select "correction" instead!