Oops, an error
Loading. Please wait.

Balaclava Tab

version 4
version 4

Whole song

Interactive

2,619 views 6 this week
no commentswrite comment
1 2 3 4 5
x 3
add to favorites
launch autoscroll
font size
0
reset
how to read this tab
guitar tuner
Autoscroll
slow
fast
+/-
esc
set tempo
stop
Help us to improve Ultimate-Guitar.com Take our survey!
×
Author
Tuning: Standard

Intro on Bass

G|---------------------------------|
D|---------------------------------|
A|--2--5--7--9--0--4-----5---------| X4
E|--------------------3------------|

Verse

Alex Turner
e|-------------------------------------------------|
B|-------------------------------------------------|
G|-------------------------------------------------|
D|-------------------------------------------------| X4
A|-2222-5555-7777-9999-0000-4444-10101010-12121212-|
E|-------------------------------------------------|

Jamie Cook
e|----------------------------|
B|----------------------------|
G|----------11-------1212-14--|
D|----12-14-------11----------|
A|-14----------12-------------| X4
E|----------------------------|

Intrumental Chorus

Both Guitars
e|----------------------------------|
B|----------------------------------|
G|----------------------------------|
D|----------------------------------|
A|------9---------------------------|
E|-7--7---10-7---5-7-5-7-5-2-2-4-5--|

e|-------------------------------|
B|-------------------------------|
G|-------------------------------|
D|-------------------------------|
A|------9-------\14--------------|
E|-7777---10-7------3-5-3-5-3-2--|

e|-------------------------------------|
B|-------------------------------------|
G|-------------------------------------|
D|-------------------------------------|
A|------9-------\14--------------------|
E|-7--7---10-7------5-7-5-7-5-2-2-4-5--|

e|-------------------------------|
B|-------------------------------|
G|-------------------------------|
D|-------------------------------|
A|------9-------\12--------------|
E|-7777---10-7------3-5-3-5-3-2--|

Verse 2

Alex Turner
e|-----------------------------|
B|-----------------------------|
G|-----------------------------|
D|-----------------------------| 
A|-0000-4444-10101010-12121212-|
E|-----------------------------|

Jamie Cook
e|----------------|
B|----------------|
G|-------1212-14--|
D|----11----------|
A|-12-------------| 
E|----------------|

Alex Turner
e|-------------------------------------------------|
B|-------------------------------------------------|
G|-------------------------------------------------|
D|-------------------------------------------------| X2
A|-2222-5555-7777-9999-0000-4444-10101010-12121212-|
E|-------------------------------------------------|

Jamie Cook
e|----------------------------|
B|----------------------------|
G|----------11-------1212-14--|
D|----12-14-------11----------|
A|-14----------12-------------| X2
E|----------------------------|

Alex Turner
e|-------------------------------|
B|-------------------------------|
G|-------------------------------|
D|-------------------------------| 
A|-2222-5555-7777-9999-0000-4444-|
E|-------------------------------|

Jamie Cook
e|--------------------|
B|--------------------|
G|----------11--------|
D|----12-14-------11--|
A|-14----------12-----| 
E|--------------------|

Bridge

Jamie Cook

e|-----|
B|-----|
G|-11~~|
D|-----| X2
A|-9~~-| 
E|-----|

e|---------------|
B|---------------|
G|-11--12-12-12--|
D|---------------| 
A|-9---10-10-10--|  X4
E|---------------|

Intrumental Chorus

Alex Turner
e|--------------|
B|--------------|
G|--------------|
D|--------------|
A|------9-------|
E|-7--7---10-7--|

Both Guitars
e|--------------------|
B|--------------------|
G|--------------------|
D|--------------------|
A|--------------------|
E|-5-7-5-7-5-2-2-4-5--|


e|-------------------------------|
B|-------------------------------|
G|-------------------------------|
D|-------------------------------|
A|------9-------\14--------------|
E|-7777---10-7------3-5-3-5-3-2--|

e|-------------------------------------|
B|-------------------------------------|
G|-------------------------------------|
D|-------------------------------------|
A|------9-------\14--------------------|
E|-7--7---10-7------5-7-5-7-5-2-2-4-5--|

e|-------------------------------|
B|-------------------------------|
G|-------------------------------|
D|-------------------------------|
A|------9-------\12--------------|
E|-7777---10-7------3-5-3-5-3-2--|

Outro

Alex Turner
e|-------------------------------------------------|
B|-------------------------------------------------|
G|-------------------------------------------------|
D|-------------------------------------------------| X2
A|-2222-5555-7777-9999-0000-4444-10101010-12121212-|
E|-------------------------------------------------|

Jamie Cook (double digit numbers)
e|--------------------------------------------------------------------|
B|--------------------------------------------------------------------|
G|--------------------------11111111----------------12121212-14141414-|
D|---------12121212-14141414----------------11111111------------------| X2
A|-14141414-------------------------12121212--------------------------|
E|--------------------------------------------------------------------|

Alex Turner
e|-----------------------------------------|
B|-----------------------------------------|
G|-----------------------------------------|
D|------------------------------------7777-|
A|-2222-5555-7777-9999-0000-7777-----------|
E|-------------------------------3333------|

Jamie Cook (double digit numbers)
e|--------------------------------------------------------------------|
B|----------------------------------------------------------15151515--|
G|--------------------------11111111----------------------------------|
D|---------12121212-14141414----------------14141414------------------|
A|-14141414-------------------------12121212--------10101010----------|
E|--------------------------------------------------------------------|

Alex Turner
e|-------------------------------------------------|
B|-------------------------------------------------|
G|-------------------------------------------------|
D|-------------------------------------------------| X9
A|-2222-5555-7777-9999-0000-4444-10101010-12121212-|
E|-------------------------------------------------|

Jamie Cook (double digit numbers)
e|--------------------------------------------------------------------|
B|--------------------------------------------------------------------|
G|--------------------------11111111----------------12121212-14141414-|
D|---------12121212-14141414----------------11111111------------------| X9
A|-14141414-------------------------12121212--------------------------|
E|--------------------------------------------------------------------|


| /  slide up
| \  slide down
| h  hammer-on
| p  pull-off
| ~  vibrato
| +  harmonic
| x  Mute note
===========================================================================
Suggest correction
Give kudos to tab author, rate the tab!
1 2 3 4 5
comments
print report bad tab
guest
You may want to rate the tab now too:
select rating
Wanna post a correction for this tab? Suggest correction