Oops, an error
Loading. Please wait.

Balaclava Bass Tab

version 5
version 5

Interactive

22,411 views 45 this week
2 commentsread comments
1 2 3 4 5
excellent!
x 12
add to favorites
launch autoscroll
font size
0
reset
guitar tuner
Tab Pro tools
  • play this tab
  • loop segment
  • change instrument
  • show fretboard
  • metronome
×
Best way to learn
"Balaclava"
Autoscroll
slow
fast
+/-
esc
set tempo
stop
Contributor
You can see O'Malley playing it like this live so I'm guessing its not too far off 
the studio version.

Slightly updated to put the tremolo in the verses.

Intro

|----------------------------|
|----------------------------|
|--2--5--7--9--0--4-----5\---|
|--------------------3-------|  x4

Verse

|-------------------------------------------------|
|-------------------------------------------------|
|--22225555777799991212121216161616101010105555---|
|-------------------------------------------------|   x4

Chorus

|----------------------------------------------------------|
|----------------------------------------------------------|
|-------9-----------------------------9--------------------|
|--77-7---10-7---57-575-2-2-3-5--7777---10-7---35-35-3-2---|   x2

Quick rest

'Or throwing her to the sharks'

|--------------------|
|--------------------|
|--0-0-4-4-----5-5---|
|----------3-3-------|

Verse

|-------------------------------------------------|
|-------------------------------------------------|
|--22225555777799991212121216161616101010105555---|
|-------------------------------------------------|  x2

|----------------------------------|
|----------------------------------|
|--22225555777799991212121216-16---|
|----------------------------------|

Bridge

|-----------------------------------------------------11---11------|
|--999999999999999977777777777777775555555544444444/99--999--999---|
|------------------------------------------------------------------|
|------------------------------------------------------------------|

|--11-12121212--11---11---11-12121212--9---9---9---------7---7---6---6---|
|----9--------99--999--999--9--------77-777-777-710109755-555-544-444----|
|------------------------------------------------------------------------|
|------------------------------------------------------------------------|

Quick rest

Chorus

|----------------------------------------------------------|
|----------------------------------------------------------|
|-------9-----------------------------9--------------------|
|--77-7---10-7---57-575-2-2-3-5--7777---10-7---35-35-3-2---|  x2


Verse

|-------------------------------------------------|
|-------------------------------------------------|
|--22225555777799991212121216161616101010105555---|
|-------------------------------------------------|   x12

Outro

|---------------------|
|---------------------|
|--2--5---4---4---5---|
|-------0---5---3-----|  x5

|-------------|
|-------------|
|--2--5---4---|
|-------0-----|

|---------------------|
|---------------------|
|--2--5---4---4---5---|
|-------0---5---3-----|  x3

|----------------|
|----------------|
|--2--5---4------|
|-------0---5\---|

comments
print report bad tab
2 comments total.
0 reply
QwaQwaFruit wrote on July 25 2011, 02:28 am

Best tab I've seen of this song.

+1 reply
langley.fry wrote on March 8 2014, 09:52 am

|---------------------|
|---------------------|
|--2--5---4---4---5---|
|-------0---5---3-----|

should be this

|---------------------|
|---------4-----------|
|--2--5-------4---5---|
|-------0---5---3-----|

other than that it's brilliant!

I want to post or [tab]
guest
You may want to rate the tab now too:
select rating
Please do not post tabs as comments. Select "correction" instead!