Oops, an error
Loading. Please wait.

Balaclava Bass Tab

version 6
version 6

Interactive

474 views 1 this week
2 commentsread comments
1 2 3 4 5
please rate
add to favorites
launch autoscroll
font size
0
reset
guitar tuner
Autoscroll
slow
fast
+/-
esc
set tempo
stop
Help us to improve Ultimate-Guitar.com Take our survey!
×
Contributor
iplaybass5 1,099
-------------------------------------------------------------------------------
			     Balaclava - ARCTIC MONKEYS
-------------------------------------------------------------------------------

Tabbed By : Kevin

Tuning: Standard

0:00
G|---------------------------------|
D|-------4---------------4---------|x2
A|---5-7-----4---5---5-7-----4---5-|
E|-7-------5---3---7-------5---3---|

0:14 (very fast picking)
G|----------------------------------|
D|----------------------------------|x2
A|-222255557777999900004444----5555-|
E|-------------------------3333-----|

0:27
G|------------------------------------------------------|
D|------------------------------------------------------|
A|----9----------------------------9--------------------|
E|-7-7--10-7---57-57-5-2-2-3-5-7777--10-7---35-35-3-2---|

G|------------------------------------------------------|
D|------------------------------------------------------|
A|----9----------------------------9--------------------|
E|-7----10-7---57-57-5-2-2-3-5-7777--10-7---35-35-3-2---|

0:43
G|----------------------------------|
D|----------------------------------|
A|-----------------00004444----5555-|
E|-------------------------3333-----|

G|----------------------------------|
D|----------------------------------|x2
A|-222255557777999900004444----5555-|
E|-------------------------3333-----|

G|----------------------------------|
D|----------------------------------|
A|-222255557777999900004444---------|
E|----------------------------------|

0:54
G|-----------------------------------------------------------------|
D|-9-9-9-9-9-9-9-9-9-9-9-9-9-9-9-9-7-7-7-7-7-7-7-7-7-7-7-7-7-7-7-7-|
A|-----------------------------------------------------------------|
E|-----------------------------------------------------------------|

G|-------------------------------------11-------11-------11---12-12-12-12-|
D|-5-5-5-5-5-5-5-5-4-4-4-4-4-4-4-4-9-9----9-9-9----9-9-9----9-------------|
A|------------------------------------------------------------------------|
E|------------------------------------------------------------------------|

G|-----11-------11-------11---12-12-12-12---------------------------6-----|
D|-9-9----9-9-9----9-9-9----9-------------7-7-7-7-7-7-7-7-7-7-7-7-7---9-7-|
A|------------------------------------------------------------------------|
E|------------------------------------------------------------------------|

G|---------------------------------|
D|-5-5-5-5-5-5-5-7-4-4-4-4-4-4-4-4-|
A|---------------------------------|
E|---------------------------------|

1:19
G|------------------------------------------------------|
D|------------------------------------------------------|
A|----9----------------------------9--------------------|
E|-7-7--10-7---57-57-5-2-2-3-5-7777--10-7---35-35-3-2---|

G|------------------------------------------------------|
D|------------------------------------------------------|
A|----9----------------------------9--------------------|
E|-7----10-7---57-57-5-2-2-3-5-7777--10-7---35-35-3-2---|

1:33
G|----------------------------------|
D|----------------------------------|x12
A|-222255557777999900004444----5555-|
E|-------------------------3333-----|

2:12
G|---------------------|   |-----------|
D|---------4-----------|x5 |---------4-|
A|----5---------4----5-|   |----5------|
E|-7----2----5----3----|   |-7----7----|

G|---------------------|   |-----------|
D|---------4-----------|x3 |---------4-|
A|----5---------4----5-|   |----5------|
E|-7----2----5----3----|   |-7----2----|


| /  slide up
| \  slide down
| h  hammer-on
| p  pull-off
| ~  vibrato
| +  harmonic
| x  Mute note
===============================================================================
Suggest correction new What's this?
You can suggest a correction to this tab. Community and Mods will review your correction and vote to approve or reject it.
comments
We did not receive enough feedback on this tab! Please rate:
print report bad tab
1 2 3 4 5
2 comments total.
0 reply
Jilljoy 120 wrote on January 19 2013, 10:01 am

G|---------------------|
D|---------4-----------|
A|----5-7-------4----5-|
E|-7---------5----3----|

Sounds better :)

0 reply
iplaybass5 1,099 wrote on January 23 2013, 04:22 pm

those are the exact notes I used in my tab, I'm not sure what you think should be changed

guest
You may want to rate the tab now too:
select rating
Please do not post tabs as comments. Select "correction" instead!